  0
SECTION
  2
HEADER
  9
$ACADVER
  1
AC1015
  9
$ACADMAINTVER
 70
     6
  9
$DWGCODEPAGE
  3
ANSI_1254
  9
$INSBASE
 10
0.0
 20
0.0
 30
0.0
  9
$EXTMIN
 10
0.0
 20
0.0
 30
0.0
  9
$EXTMAX
 10
279.4
 20
215.9
 30
0.0
  9
$LIMMIN
 10
0.0
 20
0.0
  9
$LIMMAX
 10
279.4
 20
215.9
  9
$ORTHOMODE
 70
     0
  9
$REGENMODE
 70
     1
  9
$FILLMODE
 70
     1
  9
$QTEXTMODE
 70
     0
  9
$MIRRTEXT
 70
     1
  9
$LTSCALE
 40
1.0
  9
$ATTMODE
 70
     1
  9
$TEXTSIZE
 40
3.5
  9
$TRACEWID
 40
1.0
  9
$TEXTSTYLE
  7
Standard
  9
$CLAYER
  8
0
  9
$CELTYPE
  6
ByLayer
  9
$CECOLOR
 62
   256
  9
$CELTSCALE
 40
1.0
  9
$DISPSILH
 70
     0
  9
$DIMSCALE
 40
1.0
  9
$DIMASZ
 40
3.5
  9
$DIMEXO
 40
1.0
  9
$DIMDLI
 40
3.75
  9
$DIMRND
 40
0.0
  9
$DIMDLE
 40
0.0
  9
$DIMEXE
 40
1.0
  9
$DIMTP
 40
0.0
  9
$DIMTM
 40
0.0
  9
$DIMTXT
 40
3.5
  9
$DIMCEN
 40
2.5
  9
$DIMTSZ
 40
0.0
  9
$DIMTOL
 70
     0
  9
$DIMLIM
 70
     0
  9
$DIMTIH
 70
     1
  9
$DIMTOH
 70
     1
  9
$DIMSE1
 70
     0
  9
$DIMSE2
 70
     0
  9
$DIMTAD
 70
     1
  9
$DIMZIN
 70
     0
  9
$DIMBLK
  1

  9
$DIMASO
 70
     1
  9
$DIMSHO
 70
     1
  9
$DIMPOST
  1

  9
$DIMAPOST
  1

  9
$DIMALT
 70
     0
  9
$DIMALTD
 70
     3
  9
$DIMALTF
 40
0.0393700787
  9
$DIMLFAC
 40
1.0
  9
$DIMTOFL
 70
     1
  9
$DIMTVP
 40
0.0
  9
$DIMTIX
 70
     0
  9
$DIMSOXD
 70
     0
  9
$DIMSAH
 70
     0
  9
$DIMBLK1
  1

  9
$DIMBLK2
  1

  9
$DIMSTYLE
  2
ISO-25
  9
$DIMCLRD
 70
     0
  9
$DIMCLRE
 70
     0
  9
$DIMCLRT
 70
     0
  9
$DIMTFAC
 40
1.0
  9
$DIMGAP
 40
1.524
  9
$DIMJUST
 70
     0
  9
$DIMSD1
 70
     0
  9
$DIMSD2
 70
     0
  9
$DIMTOLJ
 70
     0
  9
$DIMTZIN
 70
     0
  9
$DIMALTZ
 70
     0
  9
$DIMALTTZ
 70
     0
  9
$DIMUPT
 70
     0
  9
$DIMDEC
 70
     2
  9
$DIMTDEC
 70
     2
  9
$DIMALTU
 70
     2
  9
$DIMALTTD
 70
     3
  9
$DIMTXSTY
  7
Standard
  9
$DIMAUNIT
 70
     0
  9
$DIMADEC
 70
     2
  9
$DIMALTRND
 40
0.0
  9
$DIMAZIN
 70
     0
  9
$DIMDSEP
 70
    44
  9
$DIMATFIT
 70
     3
  9
$DIMFRAC
 70
     0
  9
$DIMLDRBLK
  1

  9
$DIMLUNIT
 70
     2
  9
$DIMLWD
 70
    -2
  9
$DIMLWE
 70
    -2
  9
$DIMTMOVE
 70
     0
  9
$LUNITS
 70
     2
  9
$LUPREC
 70
     2
  9
$SKETCHINC
 40
1.0
  9
$FILLETRAD
 40
10.0
  9
$AUNITS
 70
     0
  9
$AUPREC
 70
     2
  9
$MENU
  1
.
  9
$ELEVATION
 40
0.0
  9
$PELEVATION
 40
0.0
  9
$THICKNESS
 40
0.0
  9
$LIMCHECK
 70
     0
  9
$CHAMFERA
 40
0.0
  9
$CHAMFERB
 40
0.0
  9
$CHAMFERC
 40
0.0
  9
$CHAMFERD
 40
0.0
  9
$SKPOLY
 70
     0
  9
$TDCREATE
 40
2459948.579445139
  9
$TDUCREATE
 40
2459948.454445139
  9
$TDUPDATE
 40
2459948.57944522
  9
$TDUUPDATE
 40
2459948.45444522
  9
$TDINDWG
 40
0.0000000116
  9
$TDUSRTIMER
 40
0.0000000116
  9
$USRTIMER
 70
     1
  9
$ANGBASE
 50
0.0
  9
$ANGDIR
 70
     0
  9
$PDMODE
 70
     0
  9
$PDSIZE
 40
-1.0
  9
$PLINEWID
 40
0.0
  9
$SPLFRAME
 70
     0
  9
$SPLINETYPE
 70
     6
  9
$SPLINESEGS
 70
     8
  9
$HANDSEED
  5
15C
  9
$SURFTAB1
 70
     6
  9
$SURFTAB2
 70
     6
  9
$SURFTYPE
 70
     6
  9
$SURFU
 70
     6
  9
$SURFV
 70
     6
  9
$UCSBASE
  2

  9
$UCSNAME
  2

  9
$UCSORG
 10
0.0
 20
0.0
 30
0.0
  9
$UCSXDIR
 10
1.0
 20
0.0
 30
0.0
  9
$UCSYDIR
 10
0.0
 20
1.0
 30
0.0
  9
$UCSORTHOREF
  2

  9
$UCSORTHOVIEW
 70
     0
  9
$UCSORGTOP
 10
0.0
 20
0.0
 30
0.0
  9
$UCSORGBOTTOM
 10
0.0
 20
0.0
 30
0.0
  9
$UCSORGLEFT
 10
0.0
 20
0.0
 30
0.0
  9
$UCSORGRIGHT
 10
0.0
 20
0.0
 30
0.0
  9
$UCSORGFRONT
 10
0.0
 20
0.0
 30
0.0
  9
$UCSORGBACK
 10
0.0
 20
0.0
 30
0.0
  9
$PUCSBASE
  2

  9
$PUCSNAME
  2

  9
$PUCSORG
 10
0.0
 20
0.0
 30
0.0
  9
$PUCSXDIR
 10
1.0
 20
0.0
 30
0.0
  9
$PUCSYDIR
 10
0.0
 20
1.0
 30
0.0
  9
$PUCSORTHOREF
  2

  9
$PUCSORTHOVIEW
 70
     0
  9
$PUCSORGTOP
 10
0.0
 20
0.0
 30
0.0
  9
$PUCSORGBOTTOM
 10
0.0
 20
0.0
 30
0.0
  9
$PUCSORGLEFT
 10
0.0
 20
0.0
 30
0.0
  9
$PUCSORGRIGHT
 10
0.0
 20
0.0
 30
0.0
  9
$PUCSORGFRONT
 10
0.0
 20
0.0
 30
0.0
  9
$PUCSORGBACK
 10
0.0
 20
0.0
 30
0.0
  9
$USERI1
 70
     0
  9
$USERI2
 70
     0
  9
$USERI3
 70
     0
  9
$USERI4
 70
     0
  9
$USERI5
 70
     0
  9
$USERR1
 40
0.0
  9
$USERR2
 40
0.0
  9
$USERR3
 40
0.0
  9
$USERR4
 40
0.0
  9
$USERR5
 40
0.0
  9
$WORLDVIEW
 70
     1
  9
$SHADEDGE
 70
     3
  9
$SHADEDIF
 70
    70
  9
$TILEMODE
 70
     1
  9
$MAXACTVP
 70
    64
  9
$PINSBASE
 10
0.0
 20
0.0
 30
0.0
  9
$PLIMCHECK
 70
     0
  9
$PEXTMIN
 10
1.0000000000E+20
 20
1.0000000000E+20
 30
1.0000000000E+20
  9
$PEXTMAX
 10
-1.0000000000E+20
 20
-1.0000000000E+20
 30
-1.0000000000E+20
  9
$PLIMMIN
 10
0.0
 20
0.0
  9
$PLIMMAX
 10
420.0
 20
297.0
  9
$UNITMODE
 70
     0
  9
$VISRETAIN
 70
     1
  9
$PLINEGEN
 70
     0
  9
$PSLTSCALE
 70
     1
  9
$TREEDEPTH
 70
  3020
  9
$CMLSTYLE
  2
Standard
  9
$CMLJUST
 70
     0
  9
$CMLSCALE
 40
20.0
  9
$PROXYGRAPHICS
 70
     1
  9
$MEASUREMENT
 70
     1
  9
$CELWEIGHT
370
    -1
  9
$ENDCAPS
280
     0
  9
$JOINSTYLE
280
     0
  9
$LWDISPLAY
290
     1
  9
$INSUNITS
 70
     4
  9
$HYPERLINKBASE
  1

  9
$STYLESHEET
  1

  9
$XEDIT
290
     1
  9
$CEPSNTYPE
380
     0
  9
$PSTYLEMODE
290
     1
  9
$FINGERPRINTGUID
  2
{19705a22-b3bd-4b21-8638-4e084d6fe04a}
  9
$VERSIONGUID
  2
{FAEB1C32-E019-11D5-929B-00C0DF256EC4}
  9
$EXTNAMES
290
     1
  9
$PSVPSCALE
 40
0.0
  9
$OLESTARTUP
290
     0
  0
ENDSEC
  0
SECTION
  2
CLASSES
  0
CLASS
  1
ACDBDICTIONARYWDFLT
  2
AcDbDictionaryWithDefault
  3
ObjectDBX Classes
 90
        0
280
     0
281
     0
  0
CLASS
  1
VISUALSTYLE
  2
AcDbVisualStyle
  3
ObjectDBX Classes
 90
     4095
280
     0
281
     0
  0
CLASS
  1
MATERIAL
  2
AcDbMaterial
  3
ObjectDBX Classes
 90
     1153
280
     0
281
     0
  0
CLASS
  1
SCALE
  2
AcDbScale
  3
ObjectDBX Classes
 90
     1153
280
     0
281
     0
  0
CLASS
  1
TABLESTYLE
  2
AcDbTableStyle
  3
ObjectDBX Classes
 90
     4095
280
     0
281
     0
  0
CLASS
  1
MLEADERSTYLE
  2
AcDbMLeaderStyle
  3
ACDB_MLEADERSTYLE_CLASS
 90
     4095
280
     0
281
     0
  0
CLASS
  1
SUN
  2
AcDbSun
  3
SCENEOE
 90
     1153
280
     0
281
     0
  0
CLASS
  1
ACDBPLACEHOLDER
  2
AcDbPlaceHolder
  3
ObjectDBX Classes
 90
        0
280
     0
281
     0
  0
CLASS
  1
LAYOUT
  2
AcDbLayout
  3
ObjectDBX Classes
 90
        0
280
     0
281
     0
  0
ENDSEC
  0
SECTION
  2
TABLES
  0
TABLE
  2
VPORT
  5
8
330
0
100
AcDbSymbolTable
 70
     1
  0
VPORT
  5
29
330
8
100
AcDbSymbolTableRecord
100
AcDbViewportTableRecord
  2
*Active
 70
     0
 10
0.0
 20
0.0
 11
1.0
 21
1.0
 12
139.7
 22
107.95
 13
0.0
 23
0.0
 14
10.0
 24
10.0
 15
10.0
 25
10.0
 16
0.0
 26
0.0
 36
1.0
 17
0.0
 27
0.0
 37
0.0
 40
215.9
 41
1.2941176471
 42
50.0
 43
0.0
 44
0.0
 50
0.0
 51
0.0
 71
     0
 72
  2000
 73
     1
 74
     3
 75
     0
 76
     0
 77
     0
 78
     0
281
     0
 65
     1
110
0.0
120
0.0
130
0.0
111
1.0
121
0.0
131
0.0
112
0.0
122
1.0
132
0.0
 79
     0
146
0.0
  0
ENDTAB
  0
TABLE
  2
LTYPE
  5
5
330
0
100
AcDbSymbolTable
 70
     6
  0
LTYPE
  5
14
330
5
100
AcDbSymbolTableRecord
100
AcDbLinetypeTableRecord
  2
ByBlock
 70
     0
  3

 72
    65
 73
     0
 40
0.0
  0
LTYPE
  5
15
330
5
100
AcDbSymbolTableRecord
100
AcDbLinetypeTableRecord
  2
ByLayer
 70
     0
  3

 72
    65
 73
     0
 40
0.0
  0
LTYPE
  5
16
330
5
100
AcDbSymbolTableRecord
100
AcDbLinetypeTableRecord
  2
Continuous
 70
     0
  3
Solid line
 72
    65
 73
     0
 40
0.0
  0
LTYPE
  5
6E
330
5
100
AcDbSymbolTableRecord
100
AcDbLinetypeTableRecord
  2
HIDDEN
 70
     0
  3
Hidden __ __ __ __ __ __ __ __ __ __ __ __ __ __
 72
    65
 73
     2
 40
1.905
 49
1.27
 74
     0
 49
-0.635
 74
     0
  0
LTYPE
  5
6F
330
5
100
AcDbSymbolTableRecord
100
AcDbLinetypeTableRecord
  2
PHANTOM
 70
     0
  3
Phantom ______  __  __  ______  __  __  ______
 72
    65
 73
     6
 40
12.7
 49
6.35
 74
     0
 49
-1.27
 74
     0
 49
1.27
 74
     0
 49
-1.27
 74
     0
 49
1.27
 74
     0
 49
-1.27
 74
     0
  0
LTYPE
  5
70
330
5
100
AcDbSymbolTableRecord
100
AcDbLinetypeTableRecord
  2
CENTER
 70
     0
  3
Center ____ _ ____ _ ____ _ ____ _ ____ _ ____
 72
    65
 73
     4
 40
10.16
 49
6.35
 74
     0
 49
-1.27
 74
     0
 49
1.27
 74
     0
 49
-1.27
 74
     0
  0
LTYPE
  5
71
330
5
100
AcDbSymbolTableRecord
100
AcDbLinetypeTableRecord
  2
CENTERX2
 70
     0
  3
Center (2x) ________  __  ________  __  _____
 72
    65
 73
     4
 40
20.32
 49
12.7
 74
     0
 49
-2.54
 74
     0
 49
2.54
 74
     0
 49
-2.54
 74
     0
  0
LTYPE
  5
72
330
5
100
AcDbSymbolTableRecord
100
AcDbLinetypeTableRecord
  2
DOT2
 70
     0
  3
Dot (.5x) ........................................
 72
    65
 73
     2
 40
0.635
 49
0.0
 74
     0
 49
-0.635
 74
     0
  0
ENDTAB
  0
TABLE
  2
LAYER
  5
2
330
0
100
AcDbSymbolTable
 70
    17
  0
LAYER
  5
10
330
2
100
AcDbSymbolTableRecord
100
AcDbLayerTableRecord
  2
0
 70
     0
 62
     7
  6
Continuous
370
    -3
390
F
  0
LAYER
  5
73
330
2
100
AcDbSymbolTableRecord
100
AcDbLayerTableRecord
  2
FORMAT
 70
     0
 62
     7
  6
Continuous
370
    -3
390
F
  0
LAYER
  5
74
330
2
100
AcDbSymbolTableRecord
100
AcDbLayerTableRecord
  2
YARDIMCI_GEOMETRI
 70
     0
 62
    -6
  6
Continuous
290
     0
370
    -3
390
F
  0
LAYER
  5
75
330
2
100
AcDbSymbolTableRecord
100
AcDbLayerTableRecord
  2
SAYFA_CERCEVESI
 70
     0
 62
     7
  6
Continuous
370
    25
390
F
  0
LAYER
  5
76
330
2
100
AcDbSymbolTableRecord
100
AcDbLayerTableRecord
  2
ANTET
 70
     0
 62
     7
  6
Continuous
370
    -3
390
F
  0
LAYER
  5
77
330
2
100
AcDbSymbolTableRecord
100
AcDbLayerTableRecord
  2
OLCU
 70
     0
 62
   150
  6
Continuous
370
    -3
390
F
  0
LAYER
  5
78
330
2
100
AcDbSymbolTableRecord
100
AcDbLayerTableRecord
  2
METIN
 70
     0
 62
    96
  6
Continuous
370
    -3
390
F
  0
LAYER
  5
79
330
2
100
AcDbSymbolTableRecord
100
AcDbLayerTableRecord
  2
BALON
 70
     0
 62
     5
  6
Continuous
370
    -3
390
F
  0
LAYER
  5
7A
330
2
100
AcDbSymbolTableRecord
100
AcDbLayerTableRecord
  2
VURGU
 70
     0
 62
     7
  6
Continuous
370
    -3
390
F
  0
LAYER
  5
7B
330
2
100
AcDbSymbolTableRecord
100
AcDbLayerTableRecord
  2
SILIK
 70
     0
 62
     7
  6
Continuous
370
    -3
390
F
  0
LAYER
  5
7C
330
2
100
AcDbSymbolTableRecord
100
AcDbLayerTableRecord
  2
MODEL
 70
     0
 62
     7
  6
Continuous
370
    -3
390
F
  0
LAYER
  5
7D
330
2
100
AcDbSymbolTableRecord
100
AcDbLayerTableRecord
  2
DETAYLANDıRMA
 70
     0
 62
   190
  6
Continuous
370
    -3
390
F
  0
LAYER
  5
7E
330
2
100
AcDbSymbolTableRecord
100
AcDbLayerTableRecord
  2
TOLERANS
 70
     0
 62
   230
  6
Continuous
370
    -3
390
F
  0
LAYER
  5
7F
330
2
100
AcDbSymbolTableRecord
100
AcDbLayerTableRecord
  2
MERKEZ_CIZGILERI
 70
     0
 62
    30
  6
Continuous
370
    -3
390
F
  0
LAYER
  5
80
330
2
100
AcDbSymbolTableRecord
100
AcDbLayerTableRecord
  2
KESIT-DETAY_CIZGILERI
 70
     0
 62
     7
  6
Continuous
370
    -3
390
F
  0
LAYER
  5
81
330
2
100
AcDbSymbolTableRecord
100
AcDbLayerTableRecord
  2
\U+041E\U+0421\U+0415\U+0412\U+042B\U+0415
 70
     0
 62
     7
  6
Continuous
370
    -3
390
F
  0
LAYER
  5
82
330
2
100
AcDbSymbolTableRecord
100
AcDbLayerTableRecord
  2
\U+0412\U+041E\U+0414\U+042F\U+041D\U+042B\U+0415_\U+0417\U+041D\U+0410\U+041A\U+0418
 70
     0
 62
    11
  6
Continuous
370
    -3
390
F
  0
ENDTAB
  0
TABLE
  2
STYLE
  5
3
330
0
100
AcDbSymbolTable
 70
     1
  0
STYLE
  5
11
330
3
100
AcDbSymbolTableRecord
100
AcDbTextStyleTableRecord
  2
Standard
 70
     0
 40
0.0
 41
1.0
 50
0.0
 71
     0
 42
3.5
  3
txt
  4

  0
ENDTAB
  0
TABLE
  2
VIEW
  5
6
330
0
100
AcDbSymbolTable
 70
     0
  0
ENDTAB
  0
TABLE
  2
UCS
  5
7
330
0
100
AcDbSymbolTable
 70
     0
  0
ENDTAB
  0
TABLE
  2
APPID
  5
9
330
0
100
AcDbSymbolTable
 70
     1
  0
APPID
  5
12
330
9
100
AcDbSymbolTableRecord
100
AcDbRegAppTableRecord
  2
ACAD
 70
     0
  0
ENDTAB
  0
TABLE
  2
DIMSTYLE
  5
A
330
0
100
AcDbSymbolTable
 70
     1
100
AcDbDimStyleTable
  0
DIMSTYLE
105
27
330
A
100
AcDbSymbolTableRecord
100
AcDbDimStyleTableRecord
  2
ISO-25
 70
     0
 41
2.5
 42
0.625
 43
3.75
 44
1.25
 73
     0
 74
     0
 77
     1
 78
     8
140
2.5
141
2.5
143
0.0393700787
147
0.625
171
     3
172
     1
178
     0
271
     2
272
     2
274
     3
278
    44
283
     0
284
     8
340
11
  0
ENDTAB
  0
TABLE
  2
BLOCK_RECORD
  5
1
330
0
100
AcDbSymbolTable
 70
     2
  0
BLOCK_RECORD
  5
1F
330
1
100
AcDbSymbolTableRecord
100
AcDbBlockTableRecord
  2
*Model_Space
340
22
  0
BLOCK_RECORD
  5
1B
330
1
100
AcDbSymbolTableRecord
100
AcDbBlockTableRecord
  2
*Paper_Space
340
1E
  0
BLOCK_RECORD
  5
23
330
1
100
AcDbSymbolTableRecord
100
AcDbBlockTableRecord
  2
*Paper_Space0
340
26
  0
BLOCK_RECORD
  5
88
330
1
100
AcDbSymbolTableRecord
100
AcDbBlockTableRecord
  2
SW_CENTERMARKSYMBOL_0
340
0
102
{BLKREFS
331
93
102
}
  0
ENDTAB
  0
ENDSEC
  0
SECTION
  2
BLOCKS
  0
BLOCK
  5
20
330
1F
100
AcDbEntity
  8
0
100
AcDbBlockBegin
  2
*Model_Space
 70
     0
 10
0.0
 20
0.0
 30
0.0
  3
*Model_Space
  1

  0
ENDBLK
  5
21
330
1F
100
AcDbEntity
  8
0
100
AcDbBlockEnd
  0
BLOCK
  5
1C
330
1B
100
AcDbEntity
 67
     1
  8
0
100
AcDbBlockBegin
  2
*Paper_Space
 70
     0
 10
0.0
 20
0.0
 30
0.0
  3
*Paper_Space
  1

  0
ENDBLK
  5
1D
330
1B
100
AcDbEntity
 67
     1
  8
0
100
AcDbBlockEnd
  0
BLOCK
  5
24
330
23
100
AcDbEntity
  8
0
100
AcDbBlockBegin
  2
*Paper_Space0
 70
     0
 10
0.0
 20
0.0
 30
0.0
  3
*Paper_Space0
  1

  0
ENDBLK
  5
25
330
23
100
AcDbEntity
  8
0
100
AcDbBlockEnd
  0
BLOCK
  5
89
330
88
100
AcDbEntity
  8
0
100
AcDbBlockBegin
  2
SW_CENTERMARKSYMBOL_0
 70
     0
 10
0.0
 20
0.0
 30
0.0
  3
SW_CENTERMARKSYMBOL_0
  1

  0
LINE
  5
8B
330
88
100
AcDbEntity
  8
FORMAT
 62
     0
100
AcDbLine
 10
0.0
 20
0.0
 30
0.0
 11
0.0
 21
2.5
 31
0.0
  0
LINE
  5
8C
330
88
100
AcDbEntity
  8
FORMAT
 62
     0
100
AcDbLine
 10
0.0
 20
0.0
 30
0.0
 11
-2.5
 21
0.0
 31
0.0
  0
LINE
  5
8D
330
88
100
AcDbEntity
  8
FORMAT
 62
     0
100
AcDbLine
 10
0.0
 20
0.0
 30
0.0
 11
0.0
 21
-2.5
 31
0.0
  0
LINE
  5
8E
330
88
100
AcDbEntity
  8
FORMAT
 62
     0
100
AcDbLine
 10
0.0
 20
0.0
 30
0.0
 11
2.5
 21
0.0
 31
0.0
  0
LINE
  5
8F
330
88
100
AcDbEntity
  8
FORMAT
 62
     0
100
AcDbLine
 10
0.0
 20
5.0
 30
0.0
 11
0.0
 21
65.0
 31
0.0
  0
LINE
  5
90
330
88
100
AcDbEntity
  8
FORMAT
 62
     0
100
AcDbLine
 10
-5.0
 20
0.0
 30
0.0
 11
-65.0
 21
0.0
 31
0.0
  0
LINE
  5
91
330
88
100
AcDbEntity
  8
FORMAT
 62
     0
100
AcDbLine
 10
0.0
 20
-5.0
 30
0.0
 11
0.0
 21
-65.0
 31
0.0
  0
LINE
  5
92
330
88
100
AcDbEntity
  8
FORMAT
 62
     0
100
AcDbLine
 10
5.0
 20
0.0
 30
0.0
 11
65.0
 21
0.0
 31
0.0
  0
ENDBLK
  5
8A
330
88
100
AcDbEntity
  8
0
100
AcDbBlockEnd
  0
ENDSEC
  0
SECTION
  2
ENTITIES
  0
CIRCLE
  5
83
330
1F
100
AcDbEntity
  8
0
  6
Continuous
 62
     7
370
    25
100
AcDbCircle
 10
139.8323425481
 20
108.7440552885
 30
0.0
 40
62.50000000000001
  0
CIRCLE
  5
84
330
1F
100
AcDbEntity
  8
0
  6
Continuous
 62
     7
370
    25
100
AcDbCircle
 10
139.8323425481
 20
108.7440552885
 30
0.0
 40
51.10000000000001
  0
CIRCLE
  5
85
330
1F
100
AcDbEntity
  8
0
  6
Continuous
 62
     7
370
    25
100
AcDbCircle
 10
139.8323425481
 20
108.7440552885
 30
0.0
 40
50.00000000000003
  0
CIRCLE
  5
86
330
1F
100
AcDbEntity
  8
0
  6
Continuous
 62
     7
370
    25
100
AcDbCircle
 10
139.8323425481
 20
108.7440552885
 30
0.0
 40
77.5
  0
CIRCLE
  5
87
330
1F
100
AcDbEntity
  8
0
  6
Continuous
 62
     7
370
    25
100
AcDbCircle
 10
139.8323425481
 20
108.7440552885
 30
0.0
 40
78.00000000000003
  0
INSERT
  5
93
330
1F
100
AcDbEntity
  8
FORMAT
 62
     7
100
AcDbBlockReference
  2
SW_CENTERMARKSYMBOL_0
 10
139.8323425481
 20
108.7440552885
 30
0.0
  0
LINE
  5
94
330
1F
100
AcDbEntity
  8
0
  6
Continuous
 62
     7
370
    25
100
AcDbLine
 10
217.8323425481
 20
384.9471929907
 30
0.0
 11
217.8323425481
 21
429.4471929907
 31
0.0
  0
LINE
  5
95
330
1F
100
AcDbEntity
  8
0
  6
Continuous
 62
     7
370
    25
100
AcDbLine
 10
61.8323425481
 20
429.4471929907
 30
0.0
 11
61.8323425481
 21
384.9471929907
 31
0.0
  0
ARC
  5
96
330
1F
100
AcDbEntity
  8
0
  6
Continuous
 62
     7
370
    25
100
AcDbCircle
 10
217.3323425481
 20
429.4471929907
 30
0.0
 40
0.5000000000000284
100
AcDbArc
 50
0.0
 51
90.0
  0
ARC
  5
97
330
1F
100
AcDbEntity
  8
0
  6
Continuous
 62
     7
370
    25
100
AcDbCircle
 10
62.3323425481
 20
429.4471929907
 30
0.0
 40
0.5
100
AcDbArc
 50
90.0
 51
180.0
  0
LINE
  5
98
330
1F
100
AcDbEntity
  8
0
  6
Continuous
 62
     7
370
    25
100
AcDbLine
 10
202.3323425481
 20
429.9471929907
 30
0.0
 11
202.3323425481
 21
518.9471929907
 31
0.0
  0
LINE
  5
99
330
1F
100
AcDbEntity
  8
0
  6
Continuous
 62
     7
370
    25
100
AcDbLine
 10
77.3323425481
 20
518.9471929907
 30
0.0
 11
77.3323425481
 21
429.9471929907
 31
0.0
  0
LINE
  5
9A
330
1F
100
AcDbEntity
  8
0
  6
Continuous
 62
     7
370
    25
100
AcDbLine
 10
83.3173425481
 20
333.9471929907
 30
0.0
 11
85.0493933556
 21
332.9471929907
 31
0.0
  0
LINE
  5
9B
330
1F
100
AcDbEntity
  8
0
  6
Continuous
 62
     7
370
    25
100
AcDbLine
 10
194.6152917405
 20
332.9471929907
 30
0.0
 11
196.3473425481
 21
333.9471929907
 31
0.0
  0
LINE
  5
9C
330
1F
100
AcDbEntity
  8
0
  6
Continuous
 62
     7
370
    25
100
AcDbLine
 10
83.3173425481
 20
335.9471929907
 30
0.0
 11
85.0493933556
 21
334.9471929907
 31
0.0
  0
LINE
  5
9D
330
1F
100
AcDbEntity
  8
0
  6
Continuous
 62
     7
370
    25
100
AcDbLine
 10
194.6152917405
 20
334.9471929907
 30
0.0
 11
196.3473425481
 21
335.9471929907
 31
0.0
  0
LINE
  5
9E
330
1F
100
AcDbEntity
  8
0
  6
Continuous
 62
     7
370
    25
100
AcDbLine
 10
196.3473425481
 20
333.9471929907
 30
0.0
 11
194.6152917405
 21
334.9471929907
 31
0.0
  0
LINE
  5
9F
330
1F
100
AcDbEntity
  8
0
  6
Continuous
 62
     7
370
    25
100
AcDbLine
 10
85.0493933556
 20
334.9471929907
 30
0.0
 11
83.3173425481
 21
333.9471929907
 31
0.0
  0
LINE
  5
A0
330
1F
100
AcDbEntity
  8
0
  6
Continuous
 62
     7
370
    25
100
AcDbLine
 10
196.3473425481
 20
335.9471929907
 30
0.0
 11
194.6152917405
 21
336.9471929907
 31
0.0
  0
LINE
  5
A1
330
1F
100
AcDbEntity
  8
0
  6
Continuous
 62
     7
370
    25
100
AcDbLine
 10
85.0493933556
 20
336.9471929907
 30
0.0
 11
83.3173425481
 21
335.9471929907
 31
0.0
  0
LINE
  5
A2
330
1F
100
AcDbEntity
  8
0
  6
Continuous
 62
     7
370
    25
100
AcDbLine
 10
83.3173425481
 20
337.9471929907
 30
0.0
 11
85.0493933556
 21
336.9471929907
 31
0.0
  0
LINE
  5
A3
330
1F
100
AcDbEntity
  8
0
  6
Continuous
 62
     7
370
    25
100
AcDbLine
 10
194.6152917405
 20
336.9471929907
 30
0.0
 11
196.3473425481
 21
337.9471929907
 31
0.0
  0
LINE
  5
A4
330
1F
100
AcDbEntity
  8
0
  6
Continuous
 62
     7
370
    25
100
AcDbLine
 10
196.3473425481
 20
337.9471929907
 30
0.0
 11
194.6152917405
 21
338.9471929907
 31
0.0
  0
LINE
  5
A5
330
1F
100
AcDbEntity
  8
0
  6
Continuous
 62
     7
370
    25
100
AcDbLine
 10
85.0493933556
 20
338.9471929907
 30
0.0
 11
83.3173425481
 21
337.9471929907
 31
0.0
  0
LINE
  5
A6
330
1F
100
AcDbEntity
  8
0
  6
Continuous
 62
     7
370
    25
100
AcDbLine
 10
83.3173425481
 20
339.9471929907
 30
0.0
 11
85.0493933556
 21
338.9471929907
 31
0.0
  0
LINE
  5
A7
330
1F
100
AcDbEntity
  8
0
  6
Continuous
 62
     7
370
    25
100
AcDbLine
 10
194.6152917405
 20
338.9471929907
 30
0.0
 11
196.3473425481
 21
339.9471929907
 31
0.0
  0
LINE
  5
A8
330
1F
100
AcDbEntity
  8
0
  6
Continuous
 62
     7
370
    25
100
AcDbLine
 10
196.3473425481
 20
339.9471929907
 30
0.0
 11
196.3473425481
 21
364.9471929907
 31
0.0
  0
LINE
  5
A9
330
1F
100
AcDbEntity
  8
0
  6
Continuous
 62
     7
370
    25
100
AcDbLine
 10
83.3173425481
 20
364.9471929907
 30
0.0
 11
83.3173425481
 21
339.9471929907
 31
0.0
  0
LINE
  5
AA
330
1F
100
AcDbEntity
  8
0
  6
Continuous
 62
     7
370
    25
100
AcDbLine
 10
217.8323425481
 20
384.9471929907
 30
0.0
 11
61.8323425481
 21
384.9471929907
 31
0.0
  0
LINE
  5
AB
330
1F
100
AcDbEntity
  8
0
  6
Continuous
 62
     7
370
    25
100
AcDbLine
 10
62.3323425481
 20
429.9471929907
 30
0.0
 11
217.3323425481
 21
429.9471929907
 31
0.0
  0
LINE
  5
AC
330
1F
100
AcDbEntity
  8
0
  6
Continuous
 62
     7
370
    25
100
AcDbLine
 10
82.3323425481
 20
384.9471929907
 30
0.0
 11
82.3323425481
 21
364.9471929907
 31
0.0
  0
LINE
  5
AD
330
1F
100
AcDbEntity
  8
0
  6
Continuous
 62
     7
370
    25
100
AcDbLine
 10
139.8323425481
 20
384.9471929907
 30
0.0
 11
139.8323425481
 21
364.9471929907
 31
0.0
  0
LINE
  5
AE
330
1F
100
AcDbEntity
  8
0
  6
Continuous
 62
     7
370
    25
100
AcDbLine
 10
82.3323425481
 20
364.9471929907
 30
0.0
 11
139.8323425481
 21
364.9471929907
 31
0.0
  0
LINE
  5
AF
330
1F
100
AcDbEntity
  8
0
  6
Continuous
 62
     7
370
    25
100
AcDbLine
 10
197.3323425481
 20
384.9471929907
 30
0.0
 11
197.3323425481
 21
364.9471929907
 31
0.0
  0
LINE
  5
B0
330
1F
100
AcDbEntity
  8
0
  6
Continuous
 62
     7
370
    25
100
AcDbLine
 10
139.8323425481
 20
364.9471929907
 30
0.0
 11
197.3323425481
 21
364.9471929907
 31
0.0
  0
LINE
  5
B1
330
1F
100
AcDbEntity
  8
0
  6
Continuous
 62
     7
370
    25
100
AcDbLine
 10
202.3323425481
 20
518.9471929907
 30
0.0
 11
77.3323425481
 21
518.9471929907
 31
0.0
  0
LINE
  5
B2
330
1F
100
AcDbEntity
  8
0
  6
Continuous
 62
     7
370
    25
100
AcDbLine
 10
196.3473425481
 20
333.9471929907
 30
0.0
 11
83.3173425481
 21
333.9471929907
 31
0.0
  0
LINE
  5
B3
330
1F
100
AcDbEntity
  8
0
  6
Continuous
 62
     7
370
    25
100
AcDbLine
 10
194.6152917405
 20
332.9471929907
 30
0.0
 11
85.0493933556
 21
332.9471929907
 31
0.0
  0
LINE
  5
B4
330
1F
100
AcDbEntity
  8
0
  6
Continuous
 62
     7
370
    25
100
AcDbLine
 10
196.3473425481
 20
335.9471929907
 30
0.0
 11
83.3173425481
 21
335.9471929907
 31
0.0
  0
LINE
  5
B5
330
1F
100
AcDbEntity
  8
0
  6
Continuous
 62
     7
370
    25
100
AcDbLine
 10
194.6152917405
 20
334.9471929907
 30
0.0
 11
85.0493933556
 21
334.9471929907
 31
0.0
  0
LINE
  5
B6
330
1F
100
AcDbEntity
  8
0
  6
Continuous
 62
     7
370
    25
100
AcDbLine
 10
194.6152917405
 20
336.9471929907
 30
0.0
 11
85.0493933556
 21
336.9471929907
 31
0.0
  0
LINE
  5
B7
330
1F
100
AcDbEntity
  8
0
  6
Continuous
 62
     7
370
    25
100
AcDbLine
 10
196.3473425481
 20
337.9471929907
 30
0.0
 11
83.3173425481
 21
337.9471929907
 31
0.0
  0
LINE
  5
B8
330
1F
100
AcDbEntity
  8
0
  6
Continuous
 62
     7
370
    25
100
AcDbLine
 10
194.6152917405
 20
338.9471929907
 30
0.0
 11
85.0493933556
 21
338.9471929907
 31
0.0
  0
LINE
  5
B9
330
1F
100
AcDbEntity
  8
0
  6
Continuous
 62
     7
370
    25
100
AcDbLine
 10
196.3473425481
 20
339.9471929907
 30
0.0
 11
83.3173425481
 21
339.9471929907
 31
0.0
  0
LINE
  5
BA
330
1F
100
AcDbEntity
  8
0
  6
Continuous
 62
     1
370
    25
100
AcDbLine
 10
217.8323425481
 20
429.4471929907
 30
0.0
 11
61.8323425481
 21
429.4471929907
 31
0.0
  0
LINE
  5
BB
330
1F
100
AcDbEntity
  8
0
  6
Continuous
 62
     7
370
    25
100
AcDbLine
 10
374.8232300507
 20
30.7440552885
 30
0.0
 11
419.3232300507
 21
30.7440552885
 31
0.0
  0
LINE
  5
BC
330
1F
100
AcDbEntity
  8
0
  6
Continuous
 62
     7
370
    25
100
AcDbLine
 10
419.3232300507
 20
186.7440552885
 30
0.0
 11
374.8232300507
 21
186.7440552885
 31
0.0
  0
ARC
  5
BD
330
1F
100
AcDbEntity
  8
0
  6
Continuous
 62
     7
370
    25
100
AcDbCircle
 10
419.3232300507
 20
31.2440552885
 30
0.0
 40
0.5000000000000142
100
AcDbArc
 50
270.0
 51
0.0
  0
ARC
  5
BE
330
1F
100
AcDbEntity
  8
0
  6
Continuous
 62
     7
370
    25
100
AcDbCircle
 10
419.3232300507
 20
186.2440552885
 30
0.0
 40
0.5
100
AcDbArc
 50
0.0
 51
90.0
  0
LINE
  5
BF
330
1F
100
AcDbEntity
  8
0
  6
Continuous
 62
     7
370
    25
100
AcDbLine
 10
419.8232300507
 20
46.2440552885
 30
0.0
 11
508.8232300507
 21
46.2440552885
 31
0.0
  0
LINE
  5
C0
330
1F
100
AcDbEntity
  8
0
  6
Continuous
 62
     7
370
    25
100
AcDbLine
 10
508.8232300507
 20
171.2440552885
 30
0.0
 11
419.8232300507
 21
171.2440552885
 31
0.0
  0
LINE
  5
C1
330
1F
100
AcDbEntity
  8
0
  6
Continuous
 62
     7
370
    25
100
AcDbLine
 10
323.8232300507
 20
165.2590552885
 30
0.0
 11
322.8232300507
 21
163.5270044809
 31
0.0
  0
LINE
  5
C2
330
1F
100
AcDbEntity
  8
0
  6
Continuous
 62
     7
370
    25
100
AcDbLine
 10
322.8232300507
 20
53.961106096
 30
0.0
 11
323.8232300507
 21
52.2290552885
 31
0.0
  0
LINE
  5
C3
330
1F
100
AcDbEntity
  8
0
  6
Continuous
 62
     7
370
    25
100
AcDbLine
 10
325.8232300507
 20
165.2590552885
 30
0.0
 11
324.8232300507
 21
163.5270044809
 31
0.0
  0
LINE
  5
C4
330
1F
100
AcDbEntity
  8
0
  6
Continuous
 62
     7
370
    25
100
AcDbLine
 10
324.8232300507
 20
53.961106096
 30
0.0
 11
325.8232300507
 21
52.2290552885
 31
0.0
  0
LINE
  5
C5
330
1F
100
AcDbEntity
  8
0
  6
Continuous
 62
     7
370
    25
100
AcDbLine
 10
323.8232300507
 20
52.2290552885
 30
0.0
 11
324.8232300507
 21
53.961106096
 31
0.0
  0
LINE
  5
C6
330
1F
100
AcDbEntity
  8
0
  6
Continuous
 62
     7
370
    25
100
AcDbLine
 10
324.8232300507
 20
163.5270044809
 30
0.0
 11
323.8232300507
 21
165.2590552885
 31
0.0
  0
LINE
  5
C7
330
1F
100
AcDbEntity
  8
0
  6
Continuous
 62
     7
370
    25
100
AcDbLine
 10
325.8232300507
 20
52.2290552885
 30
0.0
 11
326.8232300507
 21
53.961106096
 31
0.0
  0
LINE
  5
C8
330
1F
100
AcDbEntity
  8
0
  6
Continuous
 62
     7
370
    25
100
AcDbLine
 10
326.8232300507
 20
163.5270044809
 30
0.0
 11
325.8232300507
 21
165.2590552885
 31
0.0
  0
LINE
  5
C9
330
1F
100
AcDbEntity
  8
0
  6
Continuous
 62
     7
370
    25
100
AcDbLine
 10
327.8232300507
 20
165.2590552885
 30
0.0
 11
326.8232300507
 21
163.5270044809
 31
0.0
  0
LINE
  5
CA
330
1F
100
AcDbEntity
  8
0
  6
Continuous
 62
     7
370
    25
100
AcDbLine
 10
326.8232300507
 20
53.961106096
 30
0.0
 11
327.8232300507
 21
52.2290552885
 31
0.0
  0
LINE
  5
CB
330
1F
100
AcDbEntity
  8
0
  6
Continuous
 62
     7
370
    25
100
AcDbLine
 10
327.8232300507
 20
52.2290552885
 30
0.0
 11
328.8232300507
 21
53.961106096
 31
0.0
  0
LINE
  5
CC
330
1F
100
AcDbEntity
  8
0
  6
Continuous
 62
     7
370
    25
100
AcDbLine
 10
328.8232300507
 20
163.5270044809
 30
0.0
 11
327.8232300507
 21
165.2590552885
 31
0.0
  0
LINE
  5
CD
330
1F
100
AcDbEntity
  8
0
  6
Continuous
 62
     7
370
    25
100
AcDbLine
 10
329.8232300507
 20
165.2590552885
 30
0.0
 11
328.8232300507
 21
163.5270044809
 31
0.0
  0
LINE
  5
CE
330
1F
100
AcDbEntity
  8
0
  6
Continuous
 62
     7
370
    25
100
AcDbLine
 10
328.8232300507
 20
53.961106096
 30
0.0
 11
329.8232300507
 21
52.2290552885
 31
0.0
  0
LINE
  5
CF
330
1F
100
AcDbEntity
  8
0
  6
Continuous
 62
     7
370
    25
100
AcDbLine
 10
329.8232300507
 20
52.2290552885
 30
0.0
 11
354.8232300507
 21
52.2290552885
 31
0.0
  0
LINE
  5
D0
330
1F
100
AcDbEntity
  8
0
  6
Continuous
 62
     7
370
    25
100
AcDbLine
 10
354.8232300507
 20
165.2590552885
 30
0.0
 11
329.8232300507
 21
165.2590552885
 31
0.0
  0
LINE
  5
D1
330
1F
100
AcDbEntity
  8
0
  6
Continuous
 62
     7
370
    25
100
AcDbLine
 10
374.8232300507
 20
108.7440552885
 30
0.0
 11
374.8232300507
 21
186.7440552885
 31
0.0
  0
LINE
  5
D2
330
1F
100
AcDbEntity
  8
0
  6
Continuous
 62
     7
370
    25
100
AcDbLine
 10
374.8232300507
 20
30.7440552885
 30
0.0
 11
374.8232300507
 21
108.7440552885
 31
0.0
  0
LINE
  5
D3
330
1F
100
AcDbEntity
  8
0
  6
Continuous
 62
     7
370
    25
100
AcDbLine
 10
419.8232300507
 20
108.7440552885
 30
0.0
 11
419.8232300507
 21
186.2440552885
 31
0.0
  0
LINE
  5
D4
330
1F
100
AcDbEntity
  8
0
  6
Continuous
 62
     7
370
    25
100
AcDbLine
 10
419.8232300507
 20
31.2440552885
 30
0.0
 11
419.8232300507
 21
108.7440552885
 31
0.0
  0
LINE
  5
D5
330
1F
100
AcDbEntity
  8
0
  6
Continuous
 62
     7
370
    25
100
AcDbLine
 10
508.8232300507
 20
108.7440552885
 30
0.0
 11
508.8232300507
 21
171.2440552885
 31
0.0
  0
LINE
  5
D6
330
1F
100
AcDbEntity
  8
0
  6
Continuous
 62
     7
370
    25
100
AcDbLine
 10
508.8232300507
 20
46.2440552885
 30
0.0
 11
508.8232300507
 21
108.7440552885
 31
0.0
  0
LINE
  5
D7
330
1F
100
AcDbEntity
  8
0
  6
Continuous
 62
     7
370
    25
100
AcDbLine
 10
374.8232300507
 20
75.5464148101
 30
0.0
 11
354.8232300507
 21
75.5464148101
 31
0.0
  0
LINE
  5
D8
330
1F
100
AcDbEntity
  8
0
  6
Continuous
 62
     7
370
    25
100
AcDbLine
 10
374.8232300507
 20
42.3487743317
 30
0.0
 11
354.8232300507
 21
42.3487743317
 31
0.0
  0
LINE
  5
D9
330
1F
100
AcDbEntity
  8
0
  6
Continuous
 62
     7
370
    25
100
AcDbLine
 10
354.8232300507
 20
75.5464148101
 30
0.0
 11
354.8232300507
 21
42.3487743317
 31
0.0
  0
LINE
  5
DA
330
1F
100
AcDbEntity
  8
0
  6
Continuous
 62
     7
370
    25
100
AcDbLine
 10
374.8232300507
 20
141.9416957669
 30
0.0
 11
354.8232300507
 21
141.9416957669
 31
0.0
  0
LINE
  5
DB
330
1F
100
AcDbEntity
  8
0
  6
Continuous
 62
     7
370
    25
100
AcDbLine
 10
354.8232300507
 20
141.9416957669
 30
0.0
 11
354.8232300507
 21
75.5464148101
 31
0.0
  0
LINE
  5
DC
330
1F
100
AcDbEntity
  8
0
  6
Continuous
 62
     7
370
    25
100
AcDbLine
 10
374.8232300507
 20
175.1393362453
 30
0.0
 11
354.8232300507
 21
175.1393362453
 31
0.0
  0
LINE
  5
DD
330
1F
100
AcDbEntity
  8
0
  6
Continuous
 62
     7
370
    25
100
AcDbLine
 10
354.8232300507
 20
175.1393362453
 30
0.0
 11
354.8232300507
 21
141.9416957669
 31
0.0
  0
LINE
  5
DE
330
1F
100
AcDbEntity
  8
0
  6
Continuous
 62
     7
370
    25
100
AcDbLine
 10
323.8232300507
 20
108.7440552885
 30
0.0
 11
323.8232300507
 21
165.2590552885
 31
0.0
  0
LINE
  5
DF
330
1F
100
AcDbEntity
  8
0
  6
Continuous
 62
     7
370
    25
100
AcDbLine
 10
323.8232300507
 20
52.2290552885
 30
0.0
 11
323.8232300507
 21
108.7440552885
 31
0.0
  0
LINE
  5
E0
330
1F
100
AcDbEntity
  8
0
  6
Continuous
 62
     7
370
    25
100
AcDbLine
 10
322.8232300507
 20
108.7440552885
 30
0.0
 11
322.8232300507
 21
163.5270044809
 31
0.0
  0
LINE
  5
E1
330
1F
100
AcDbEntity
  8
0
  6
Continuous
 62
     7
370
    25
100
AcDbLine
 10
322.8232300507
 20
53.961106096
 30
0.0
 11
322.8232300507
 21
108.7440552885
 31
0.0
  0
LINE
  5
E2
330
1F
100
AcDbEntity
  8
0
  6
Continuous
 62
     7
370
    25
100
AcDbLine
 10
325.8232300507
 20
108.7440552885
 30
0.0
 11
325.8232300507
 21
165.2590552885
 31
0.0
  0
LINE
  5
E3
330
1F
100
AcDbEntity
  8
0
  6
Continuous
 62
     7
370
    25
100
AcDbLine
 10
325.8232300507
 20
52.2290552885
 30
0.0
 11
325.8232300507
 21
108.7440552885
 31
0.0
  0
LINE
  5
E4
330
1F
100
AcDbEntity
  8
0
  6
Continuous
 62
     7
370
    25
100
AcDbLine
 10
324.8232300507
 20
108.7440552885
 30
0.0
 11
324.8232300507
 21
163.5270044809
 31
0.0
  0
LINE
  5
E5
330
1F
100
AcDbEntity
  8
0
  6
Continuous
 62
     7
370
    25
100
AcDbLine
 10
324.8232300507
 20
53.961106096
 30
0.0
 11
324.8232300507
 21
108.7440552885
 31
0.0
  0
LINE
  5
E6
330
1F
100
AcDbEntity
  8
0
  6
Continuous
 62
     7
370
    25
100
AcDbLine
 10
326.8232300507
 20
108.7440552885
 30
0.0
 11
326.8232300507
 21
163.5270044809
 31
0.0
  0
LINE
  5
E7
330
1F
100
AcDbEntity
  8
0
  6
Continuous
 62
     7
370
    25
100
AcDbLine
 10
326.8232300507
 20
53.961106096
 30
0.0
 11
326.8232300507
 21
108.7440552885
 31
0.0
  0
LINE
  5
E8
330
1F
100
AcDbEntity
  8
0
  6
Continuous
 62
     7
370
    25
100
AcDbLine
 10
327.8232300507
 20
108.7440552885
 30
0.0
 11
327.8232300507
 21
165.2590552885
 31
0.0
  0
LINE
  5
E9
330
1F
100
AcDbEntity
  8
0
  6
Continuous
 62
     7
370
    25
100
AcDbLine
 10
327.8232300507
 20
52.2290552885
 30
0.0
 11
327.8232300507
 21
108.7440552885
 31
0.0
  0
LINE
  5
EA
330
1F
100
AcDbEntity
  8
0
  6
Continuous
 62
     7
370
    25
100
AcDbLine
 10
328.8232300507
 20
108.7440552885
 30
0.0
 11
328.8232300507
 21
163.5270044809
 31
0.0
  0
LINE
  5
EB
330
1F
100
AcDbEntity
  8
0
  6
Continuous
 62
     7
370
    25
100
AcDbLine
 10
328.8232300507
 20
53.961106096
 30
0.0
 11
328.8232300507
 21
108.7440552885
 31
0.0
  0
LINE
  5
EC
330
1F
100
AcDbEntity
  8
0
  6
Continuous
 62
     7
370
    25
100
AcDbLine
 10
329.8232300507
 20
108.7440552885
 30
0.0
 11
329.8232300507
 21
165.2590552885
 31
0.0
  0
LINE
  5
ED
330
1F
100
AcDbEntity
  8
0
  6
Continuous
 62
     7
370
    25
100
AcDbLine
 10
329.8232300507
 20
52.2290552885
 30
0.0
 11
329.8232300507
 21
108.7440552885
 31
0.0
  0
LINE
  5
EE
330
1F
100
AcDbEntity
  8
0
  6
Continuous
 62
     1
370
    25
100
AcDbLine
 10
419.3232300507
 20
108.7440552885
 30
0.0
 11
419.3232300507
 21
186.7440552885
 31
0.0
  0
LINE
  5
EF
330
1F
100
AcDbEntity
  8
0
  6
Continuous
 62
     1
370
    25
100
AcDbLine
 10
419.3232300507
 20
30.7440552885
 30
0.0
 11
419.3232300507
 21
108.7440552885
 31
0.0
  0
LINE
  5
F0
330
1F
100
AcDbEntity
  8
0
  6
Continuous
 62
     7
370
    25
100
AcDbLine
 10
-132.3599125736
 20
186.7440552885
 30
0.0
 11
-176.8599125736
 21
186.7440552885
 31
0.0
  0
LINE
  5
F1
330
1F
100
AcDbEntity
  8
0
  6
Continuous
 62
     7
370
    25
100
AcDbLine
 10
-176.8599125736
 20
30.7440552885
 30
0.0
 11
-132.3599125736
 21
30.7440552885
 31
0.0
  0
ARC
  5
F2
330
1F
100
AcDbEntity
  8
0
  6
Continuous
 62
     7
370
    25
100
AcDbCircle
 10
-176.8599125736
 20
186.2440552885
 30
0.0
 40
0.5
100
AcDbArc
 50
90.0
 51
180.0
  0
ARC
  5
F3
330
1F
100
AcDbEntity
  8
0
  6
Continuous
 62
     7
370
    25
100
AcDbCircle
 10
-176.8599125736
 20
31.2440552885
 30
0.0
 40
0.5000000000000142
100
AcDbArc
 50
180.0
 51
270.0
  0
LINE
  5
F4
330
1F
100
AcDbEntity
  8
0
  6
Continuous
 62
     7
370
    25
100
AcDbLine
 10
-177.3599125736
 20
171.2440552885
 30
0.0
 11
-266.3599125736
 21
171.2440552885
 31
0.0
  0
LINE
  5
F5
330
1F
100
AcDbEntity
  8
0
  6
Continuous
 62
     7
370
    25
100
AcDbLine
 10
-266.3599125736
 20
46.2440552885
 30
0.0
 11
-177.3599125736
 21
46.2440552885
 31
0.0
  0
LINE
  5
F6
330
1F
100
AcDbEntity
  8
0
  6
Continuous
 62
     7
370
    25
100
AcDbLine
 10
-81.3599125736
 20
52.2290552885
 30
0.0
 11
-80.3599125736
 21
53.961106096
 31
0.0
  0
LINE
  5
F7
330
1F
100
AcDbEntity
  8
0
  6
Continuous
 62
     7
370
    25
100
AcDbLine
 10
-80.3599125736
 20
163.5270044809
 30
0.0
 11
-81.3599125736
 21
165.2590552885
 31
0.0
  0
LINE
  5
F8
330
1F
100
AcDbEntity
  8
0
  6
Continuous
 62
     7
370
    25
100
AcDbLine
 10
-83.3599125736
 20
52.2290552885
 30
0.0
 11
-82.3599125736
 21
53.961106096
 31
0.0
  0
LINE
  5
F9
330
1F
100
AcDbEntity
  8
0
  6
Continuous
 62
     7
370
    25
100
AcDbLine
 10
-82.3599125736
 20
163.5270044809
 30
0.0
 11
-83.3599125736
 21
165.2590552885
 31
0.0
  0
LINE
  5
FA
330
1F
100
AcDbEntity
  8
0
  6
Continuous
 62
     7
370
    25
100
AcDbLine
 10
-81.3599125736
 20
165.2590552885
 30
0.0
 11
-82.3599125736
 21
163.5270044809
 31
0.0
  0
LINE
  5
FB
330
1F
100
AcDbEntity
  8
0
  6
Continuous
 62
     7
370
    25
100
AcDbLine
 10
-82.3599125736
 20
53.961106096
 30
0.0
 11
-81.3599125736
 21
52.2290552885
 31
0.0
  0
LINE
  5
FC
330
1F
100
AcDbEntity
  8
0
  6
Continuous
 62
     7
370
    25
100
AcDbLine
 10
-83.3599125736
 20
165.2590552885
 30
0.0
 11
-84.3599125736
 21
163.5270044809
 31
0.0
  0
LINE
  5
FD
330
1F
100
AcDbEntity
  8
0
  6
Continuous
 62
     7
370
    25
100
AcDbLine
 10
-84.3599125736
 20
53.961106096
 30
0.0
 11
-83.3599125736
 21
52.2290552885
 31
0.0
  0
LINE
  5
FE
330
1F
100
AcDbEntity
  8
0
  6
Continuous
 62
     7
370
    25
100
AcDbLine
 10
-85.3599125736
 20
52.2290552885
 30
0.0
 11
-84.3599125736
 21
53.961106096
 31
0.0
  0
LINE
  5
FF
330
1F
100
AcDbEntity
  8
0
  6
Continuous
 62
     7
370
    25
100
AcDbLine
 10
-84.3599125736
 20
163.5270044809
 30
0.0
 11
-85.3599125736
 21
165.2590552885
 31
0.0
  0
LINE
  5
100
330
1F
100
AcDbEntity
  8
0
  6
Continuous
 62
     7
370
    25
100
AcDbLine
 10
-85.3599125736
 20
165.2590552885
 30
0.0
 11
-86.3599125736
 21
163.5270044809
 31
0.0
  0
LINE
  5
101
330
1F
100
AcDbEntity
  8
0
  6
Continuous
 62
     7
370
    25
100
AcDbLine
 10
-86.3599125736
 20
53.961106096
 30
0.0
 11
-85.3599125736
 21
52.2290552885
 31
0.0
  0
LINE
  5
102
330
1F
100
AcDbEntity
  8
0
  6
Continuous
 62
     7
370
    25
100
AcDbLine
 10
-87.3599125736
 20
52.2290552885
 30
0.0
 11
-86.3599125736
 21
53.961106096
 31
0.0
  0
LINE
  5
103
330
1F
100
AcDbEntity
  8
0
  6
Continuous
 62
     7
370
    25
100
AcDbLine
 10
-86.3599125736
 20
163.5270044809
 30
0.0
 11
-87.3599125736
 21
165.2590552885
 31
0.0
  0
LINE
  5
104
330
1F
100
AcDbEntity
  8
0
  6
Continuous
 62
     7
370
    25
100
AcDbLine
 10
-87.3599125736
 20
165.2590552885
 30
0.0
 11
-112.3599125736
 21
165.2590552885
 31
0.0
  0
LINE
  5
105
330
1F
100
AcDbEntity
  8
0
  6
Continuous
 62
     7
370
    25
100
AcDbLine
 10
-112.3599125736
 20
52.2290552885
 30
0.0
 11
-87.3599125736
 21
52.2290552885
 31
0.0
  0
LINE
  5
106
330
1F
100
AcDbEntity
  8
0
  6
Continuous
 62
     7
370
    25
100
AcDbLine
 10
-132.3599125736
 20
186.7440552885
 30
0.0
 11
-132.3599125736
 21
30.7440552885
 31
0.0
  0
LINE
  5
107
330
1F
100
AcDbEntity
  8
0
  6
Continuous
 62
     7
370
    25
100
AcDbLine
 10
-177.3599125736
 20
186.2440552885
 30
0.0
 11
-177.3599125736
 21
31.2440552885
 31
0.0
  0
LINE
  5
108
330
1F
100
AcDbEntity
  8
0
  6
Continuous
 62
     7
370
    25
100
AcDbLine
 10
-266.3599125736
 20
171.2440552885
 30
0.0
 11
-266.3599125736
 21
46.2440552885
 31
0.0
  0
LINE
  5
109
330
1F
100
AcDbEntity
  8
0
  6
Continuous
 62
     7
370
    25
100
AcDbLine
 10
-132.3599125736
 20
141.9416957669
 30
0.0
 11
-112.3599125736
 21
141.9416957669
 31
0.0
  0
LINE
  5
10A
330
1F
100
AcDbEntity
  8
0
  6
Continuous
 62
     7
370
    25
100
AcDbLine
 10
-132.3599125736
 20
175.1393362453
 30
0.0
 11
-112.3599125736
 21
175.1393362453
 31
0.0
  0
LINE
  5
10B
330
1F
100
AcDbEntity
  8
0
  6
Continuous
 62
     7
370
    25
100
AcDbLine
 10
-112.3599125736
 20
141.9416957669
 30
0.0
 11
-112.3599125736
 21
175.1393362453
 31
0.0
  0
LINE
  5
10C
330
1F
100
AcDbEntity
  8
0
  6
Continuous
 62
     7
370
    25
100
AcDbLine
 10
-132.3599125736
 20
75.5464148101
 30
0.0
 11
-112.3599125736
 21
75.5464148101
 31
0.0
  0
LINE
  5
10D
330
1F
100
AcDbEntity
  8
0
  6
Continuous
 62
     7
370
    25
100
AcDbLine
 10
-112.3599125736
 20
75.5464148101
 30
0.0
 11
-112.3599125736
 21
141.9416957669
 31
0.0
  0
LINE
  5
10E
330
1F
100
AcDbEntity
  8
0
  6
Continuous
 62
     7
370
    25
100
AcDbLine
 10
-132.3599125736
 20
42.3487743317
 30
0.0
 11
-112.3599125736
 21
42.3487743317
 31
0.0
  0
LINE
  5
10F
330
1F
100
AcDbEntity
  8
0
  6
Continuous
 62
     7
370
    25
100
AcDbLine
 10
-112.3599125736
 20
42.3487743317
 30
0.0
 11
-112.3599125736
 21
75.5464148101
 31
0.0
  0
LINE
  5
110
330
1F
100
AcDbEntity
  8
0
  6
Continuous
 62
     7
370
    25
100
AcDbLine
 10
-81.3599125736
 20
165.2590552885
 30
0.0
 11
-81.3599125736
 21
52.2290552885
 31
0.0
  0
LINE
  5
111
330
1F
100
AcDbEntity
  8
0
  6
Continuous
 62
     7
370
    25
100
AcDbLine
 10
-80.3599125736
 20
163.5270044809
 30
0.0
 11
-80.3599125736
 21
53.961106096
 31
0.0
  0
LINE
  5
112
330
1F
100
AcDbEntity
  8
0
  6
Continuous
 62
     7
370
    25
100
AcDbLine
 10
-83.3599125736
 20
165.2590552885
 30
0.0
 11
-83.3599125736
 21
52.2290552885
 31
0.0
  0
LINE
  5
113
330
1F
100
AcDbEntity
  8
0
  6
Continuous
 62
     7
370
    25
100
AcDbLine
 10
-82.3599125736
 20
163.5270044809
 30
0.0
 11
-82.3599125736
 21
53.961106096
 31
0.0
  0
LINE
  5
114
330
1F
100
AcDbEntity
  8
0
  6
Continuous
 62
     7
370
    25
100
AcDbLine
 10
-84.3599125736
 20
163.5270044809
 30
0.0
 11
-84.3599125736
 21
53.961106096
 31
0.0
  0
LINE
  5
115
330
1F
100
AcDbEntity
  8
0
  6
Continuous
 62
     7
370
    25
100
AcDbLine
 10
-85.3599125736
 20
165.2590552885
 30
0.0
 11
-85.3599125736
 21
52.2290552885
 31
0.0
  0
LINE
  5
116
330
1F
100
AcDbEntity
  8
0
  6
Continuous
 62
     7
370
    25
100
AcDbLine
 10
-86.3599125736
 20
163.5270044809
 30
0.0
 11
-86.3599125736
 21
53.961106096
 31
0.0
  0
LINE
  5
117
330
1F
100
AcDbEntity
  8
0
  6
Continuous
 62
     7
370
    25
100
AcDbLine
 10
-87.3599125736
 20
165.2590552885
 30
0.0
 11
-87.3599125736
 21
52.2290552885
 31
0.0
  0
LINE
  5
118
330
1F
100
AcDbEntity
  8
0
  6
Continuous
 62
     1
370
    25
100
AcDbLine
 10
-176.8599125736
 20
186.7440552885
 30
0.0
 11
-176.8599125736
 21
30.7440552885
 31
0.0
  0
LINE
  5
119
330
1F
100
AcDbEntity
  8
0
  6
Continuous
 62
     7
370
    25
100
AcDbLine
 10
459.5978156713
 20
-134.4619070632
 30
0.0
 11
396.6653121457
 21
-98.1317460871
 31
0.0
  0
LINE
  5
11A
330
1F
100
AcDbEntity
  8
0
  6
Continuous
 62
     7
370
    25
100
AcDbLine
 10
334.1703913559
 20
-206.3878538847
 30
0.0
 11
397.1028948815
 21
-242.7180148608
 31
0.0
  0
SPLINE
  5
11B
330
1F
100
AcDbEntity
  8
0
  6
Continuous
 62
     7
370
    25
100
AcDbSpline
210
0.0
220
0.0
230
1.0
 70
     8
 71
     3
 72
    16
 73
    12
 74
     0
 42
0.00000001
 43
0.00000001
 40
0.0
 40
0.0
 40
0.0
 40
0.0
 40
0.0145291634667233
 40
0.1527746285329013
 40
0.2911329496448917
 40
0.4295929468758032
 40
0.5681396726389115
 40
0.7067567103535511
 40
0.8454279201157032
 40
0.9841385785312088
 40
1.0
 40
1.0
 40
1.0
 40
1.0
 10
454.547985813895
 20
-117.5791892767797
 30
0.0
 10
454.4670285925168
 20
-117.5734399831512
 30
0.0
 10
453.6157607647834
 20
-117.5129859728134
 30
0.0
 10
451.9388163325127
 20
-117.5516126844157
 30
0.0
 10
449.5192174411787
 20
-117.7069155172719
 30
0.0
 10
447.0458718434891
 20
-118.0412712944575
 30
0.0
 10
444.5320667986729
 20
-118.5340963778714
 30
0.0
 10
441.9821338180894
 20
-119.1847008052767
 30
0.0
 10
439.4005718561002
 20
-120.0098188242803
 30
0.0
 10
437.568401772284
 20
-120.6611538928271
 30
0.0
 10
436.5944562284367
 20
-121.0815195008393
 30
0.0
 10
436.4945147592517
 20
-121.1246553380789
 30
0.0
  0
SPLINE
  5
11C
330
1F
100
AcDbEntity
  8
0
  6
Continuous
 62
     7
370
    25
100
AcDbSpline
210
0.0
220
0.0
230
1.0
 70
     8
 71
     3
 72
    15
 73
    11
 74
     0
 42
0.00000001
 43
0.00000001
 40
0.0
 40
0.0
 40
0.0
 40
0.0
 40
0.0672099176734544
 40
0.2117539466440758
 40
0.3562792674168782
 40
0.5007738161956515
 40
0.6452231061866771
 40
0.7896105524087451
 40
0.9339182755990924
 40
1.0
 40
1.0
 40
1.0
 40
1.0
 10
374.0106716631755
 20
-229.3871581521024
 30
0.0
 10
374.0671661713419
 20
-229.823395201722
 30
0.0
 10
374.2451597693411
 20
-231.1978190981788
 30
0.0
 10
374.678644502524
 20
-233.4100692701392
 30
0.0
 10
375.3039631666684
 20
-236.0204031526412
 30
0.0
 10
376.0593721848439
 20
-238.5175278157745
 30
0.0
 10
376.9321302712538
 20
-240.9045967219925
 30
0.0
 10
377.9307481682185
 20
-243.1648905569857
 30
0.0
 10
378.8249816207675
 20
-244.9379259880452
 30
0.0
 10
379.4275977476047
 20
-245.9076085510385
 30
0.0
 10
379.6168748870674
 20
-246.2121784646806
 30
0.0
  0
LINE
  5
11D
330
1F
100
AcDbEntity
  8
0
  6
Continuous
 62
     7
370
    25
100
AcDbLine
 10
499.1669910026
 20
-139.4073322123
 30
0.0
 11
467.7007392398
 21
-121.2422517243
 31
0.0
  0
LINE
  5
11E
330
1F
100
AcDbEntity
  8
0
  6
Continuous
 62
     7
370
    25
100
AcDbLine
 10
389.7070780942
 20
-256.3458742556
 30
0.0
 11
421.173329857
 21
-274.5109547437
 31
0.0
  0
LINE
  5
11F
330
1F
100
AcDbEntity
  8
0
  6
Continuous
 62
     7
370
    25
100
AcDbLine
 10
520.2451691706
 20
-176.3835745366
 30
0.0
 11
515.3071631115
 21
-173.5329243164
 31
0.0
  0
LINE
  5
120
330
1F
100
AcDbEntity
  8
0
  6
Continuous
 62
     7
370
    25
100
AcDbLine
 10
458.7967559366
 20
-271.4224272313
 30
0.0
 11
463.7347619957
 21
-274.2730774515
 31
0.0
  0
LWPOLYLINE
  5
121
330
1F
100
AcDbEntity
  8
0
  6
Continuous
 62
     7
370
    25
100
AcDbPolyline
 90
      102
 70
   128
 43
0.0
 10
329.2846952322
 20
-173.119027243
 10
329.3545913137
 20
-170.484634332
 10
329.564009144
 20
-167.7797330774
 10
329.912138526
 20
-165.0147882167
 10
330.397632615
 20
-162.2004967844
 10
331.0186131285
 20
-159.3477467273
 10
331.7726776136
 20
-156.4675747813
 10
332.6569087413
 20
-153.571123772
 10
333.6678855931
 20
-150.6695995057
 10
334.801696896
 20
-147.7742274162
 10
336.0539561543
 20
-144.8962091355
 10
337.4198186203
 20
-142.0466791573
 10
338.8940000373
 20
-139.2366617596
 10
340.4707970839
 20
-136.4770283536
 10
342.1441094386
 20
-133.7784554251
 10
343.907463381
 20
-131.1513832283
 10
345.7540368372
 20
-128.6059753953
 10
347.6766857733
 20
-126.1520796145
 10
349.667971834
 20
-123.7991895319
 10
351.7201911204
 20
-121.5564080222
 10
353.8254039948
 20
-119.4324119713
 10
355.9754657976
 20
-117.4354187074
 10
358.1620583572
 20
-115.5731542094
 10
360.376722172
 20
-113.8528232169
 10
362.6108891377
 20
-112.2810813563
 10
364.8559156965
 20
-110.8640093916
 10
367.1031162767
 20
-109.6070896988
 10
369.3437968959
 20
-108.5151850561
 10
371.569288796
 20
-107.5925198304
 10
373.7709819812
 20
-106.8426636342
 10
375.9403585282
 20
-106.2685175155
 10
378.0690255407
 20
-105.8723027342
 10
380.1487476196
 20
-105.6555521681
 10
382.171478724
 20
-105.6191043831
 10
384.1293933004
 20
-105.7631003887
 10
386.0149165575
 20
-106.0869830922
 10
387.8207537722
 20
-106.5894994544
 10
389.5399185112
 20
-107.2687053371
 10
391.16575966
 20
-108.1219730248
 10
392.6919871551
 20
-109.1460013904
 10
394.1126963187
 20
-110.3368286672
 10
395.4223907032
 20
-111.6898477758
 10
396.6160033554
 20
-113.199824148
 10
397.6889164198
 20
-114.8609159787
 10
398.6369790042
 20
-116.6666968263
 10
399.4565232387
 20
-118.6101804754
 10
400.1443784657
 20
-120.6838479653
 10
400.6978835072
 20
-122.8796766795
 10
401.1148969595
 20
-125.1891713832
 10
401.3938054786
 20
-127.6033970899
 10
401.5335300218
 20
-130.1130136296
 10
401.5335300218
 20
-132.7083117832
 10
401.3938054786
 20
-135.3792508466
 10
401.1148969595
 20
-138.1154974752
 10
400.6978835072
 20
-140.9064656624
 10
400.1443784657
 20
-143.7413576945
 10
399.4565232387
 20
-146.6092059251
 10
398.6369790042
 20
-149.4989152063
 10
397.6889164198
 20
-152.3993058144
 10
396.6160033554
 20
-155.2991567015
 10
395.4223907032
 20
-158.1872489079
 10
394.1126963187
 20
-161.052408966
 10
392.6919871551
 20
-163.8835521281
 10
391.16575966
 20
-166.6697252512
 10
389.5399185112
 20
-169.4001491728
 10
387.8207537722
 20
-172.0642604133
 10
386.0149165575
 20
-174.6517520437
 10
384.1293933004
 20
-177.1526135616
 10
382.171478724
 20
-179.5571696197
 10
380.1487476196
 20
-181.8561174576
 10
378.0690255407
 20
-184.0405628928
 10
375.9403585282
 20
-186.1020547303
 10
373.7709819812
 20
-188.0326174586
 10
371.569288796
 20
-189.8247821057
 10
369.3437968959
 20
-191.4716151345
 10
367.1031162767
 20
-192.9667452681
 10
364.8559156965
 20
-194.3043881384
 10
362.6108891377
 20
-195.479368665
 10
360.376722172
 20
-196.4871410766
 10
358.1620583572
 20
-197.3238064974
 10
355.9754657976
 20
-197.9861280315
 10
353.8254039948
 20
-198.4715432855
 10
351.7201911204
 20
-198.7781742821
 10
349.667971834
 20
-198.9048347255
 10
347.6766857733
 20
-198.8510345911
 10
345.7540368372
 20
-198.6169820212
 10
343.907463381
 20
-198.2035825197
 10
342.1441094386
 20
-197.6124354489
 10
340.4707970839
 20
-196.845827842
 10
338.8940000373
 20
-195.906725555
 10
337.4198186203
 20
-194.7987617921
 10
336.0539561543
 20
-193.5262230499
 10
334.801696896
 20
-192.0940325335
 10
333.6678855931
 20
-190.50773111
 10
332.6569087413
 20
-188.7734558712
 10
331.7726776136
 20
-186.8979163912
 10
331.0186131285
 20
-184.8883687679
 10
330.397632615
 20
-182.7525875506
 10
329.912138526
 20
-180.498835662
 10
329.564009144
 20
-178.1358324303
 10
329.3545913137
 20
-175.6727198559
 10
329.2846952322
 20
-173.119027243
  0
LWPOLYLINE
  5
122
330
1F
100
AcDbEntity
  8
0
  6
Continuous
 62
     7
370
    25
100
AcDbPolyline
 90
      112
 70
   128
 43
0.0
 10
321.2236779266
 20
-177.7725534803
 10
321.2944615577
 20
-174.8444511728
 10
321.5065857097
 20
-171.8440034188
 10
321.859370885
 20
-168.7808215571
 10
322.3516870063
 20
-165.6647178826
 10
322.9819570367
 20
-162.5056742148
 10
323.7481620312
 20
-159.313809923
 10
324.6478476043
 20
-156.0993495108
 10
325.6781317917
 20
-152.8725898639
 10
326.8357142828
 20
-149.6438672663
 10
328.1168869917
 20
-146.4235242898
 10
329.5175459361
 20
-143.2218766638
 10
331.033204383
 20
-140.049180231
 10
332.6590072216
 20
-136.9155980945
 10
334.3897465152
 20
-133.8311680625
 10
336.2198781841
 20
-130.8057704943
 10
338.1435397647
 20
-127.8490966505
 10
340.1545691892
 20
-124.9706176486
 10
342.246524524
 20
-122.1795541248
 10
344.4127046055
 20
-119.4848466969
 10
346.6461705058
 20
-116.8951273253
 10
348.9397677603
 20
-114.4186916618
 10
351.2861492856
 20
-112.0634724764
 10
353.6777989142
 20
-109.8370142461
 10
356.1070554715
 20
-107.7464489881
 10
358.5661373161
 20
-105.7984734129
 10
361.0471672678
 20
-103.9993274737
 10
363.5421978394
 20
-102.3547743773
 10
366.0432366961
 20
-100.8700821231
 10
368.5422722562
 20
-99.5500066279
 10
371.0312993554
 20
-98.3987764915
 10
373.5023448897
 20
-97.4200794512
 10
375.9474933552
 20
-96.6170505685
 10
378.3589122043
 20
-95.9922621871
 10
380.7288769352
 20
-95.5477156926
 10
383.0497958366
 20
-95.2848351013
 10
385.3142343055
 20
-95.2044624991
 10
387.5149386629
 20
-95.3068553437
 10
389.6448593891
 20
-95.5916856398
 10
391.697173706
 20
-96.0580409902
 10
393.6653074321
 20
-96.7044275182
 10
395.5429560418
 20
-97.5287746527
 10
397.3241048604
 20
-98.5284417614
 10
399.0030483314
 20
-99.7002266091
 10
400.5744082927
 20
-101.0403756158
 10
402.0331512045
 20
-102.5445958802
 10
403.3746042735
 20
-104.2080689312
 10
404.5944704212
 20
-106.0254661631
 10
405.6888420485
 20
-107.9909659049
 10
406.6542135532
 20
-110.0982720681
 10
407.4874925593
 20
-112.3406343159
 10
408.1860098229
 20
-114.710869686
 10
408.7475277827
 20
-117.2013855999
 10
409.1702477273
 20
-119.8042041844
 10
409.4528155574
 20
-122.5109878267
 10
409.5943261229
 20
-125.3130658829
 10
409.5943261229
 20
-128.2014624523
 10
409.4528155574
 20
-131.1669251297
 10
409.1702477273
 20
-134.1999546443
 10
408.7475277827
 20
-137.2908352881
 10
408.1860098229
 20
-140.4296660386
 10
407.4874925593
 20
-143.6063922746
 10
406.6542135532
 20
-146.8108379844
 10
405.6888420485
 20
-150.0327383621
 10
404.5944704212
 20
-153.2617726896
 10
403.3746042735
 20
-156.4875973965
 10
402.0331512045
 20
-159.6998791937
 10
400.5744082927
 20
-162.8883281742
 10
399.0030483314
 20
-166.0427307747
 10
397.3241048604
 20
-169.1529824926
 10
395.5429560418
 20
-172.2091202541
 10
393.6653074321
 20
-175.2013543286
 10
391.697173706
 20
-178.1200996882
 10
389.6448593891
 20
-180.9560067116
 10
387.5149386629
 20
-183.6999911336
 10
385.3142343055
 20
-186.343263145
 10
383.0497958366
 20
-188.8773555486
 10
380.7288769352
 20
-191.2941508824
 10
378.3589122043
 20
-193.5859074224
 10
375.9474933552
 20
-195.7452839814
 10
373.5023448897
 20
-197.7653634255
 10
371.0312993554
 20
-199.639674831
 10
368.5422722562
 20
-201.3622142136
 10
366.0432366961
 20
-202.9274637602
 10
363.5421978394
 20
-204.3304095047
 10
361.0471672678
 20
-205.5665573889
 10
358.5661373161
 20
-206.6319476585
 10
356.1070554715
 20
-207.5231675473
 10
353.6777989142
 20
-208.2373622092
 10
351.2861492856
 20
-208.7722438634
 10
348.9397677603
 20
-209.1260991228
 10
346.6461705058
 20
-209.2977944823
 10
344.4127046055
 20
-209.2867799499
 10
342.246524524
 20
-209.0930908084
 10
340.1545691892
 20
-208.7173475026
 10
338.1435397647
 20
-208.1607536516
 10
336.2198781841
 20
-207.4250921932
 10
334.3897465152
 20
-206.5127196729
 10
332.6590072216
 20
-205.4265586949
 10
331.033204383
 20
-204.1700885604
 10
329.5175459361
 20
-202.7473341218
 10
328.1168869917
 20
-201.1628528907
 10
326.8357142828
 20
-199.421720438
 10
325.6781317917
 20
-197.529514136
 10
324.6478476043
 20
-195.4922952919
 10
323.7481620312
 20
-193.3165897318
 10
322.9819570367
 20
-191.0093668965
 10
322.3516870063
 20
-188.5780175164
 10
321.859370885
 20
-186.0303299365
 10
321.5065857097
 20
-183.3744651682
 10
321.2944615577
 20
-180.618930747
 10
321.2236779266
 20
-177.7725534803
  0
LWPOLYLINE
  5
123
330
1F
100
AcDbEntity
  8
0
  6
Continuous
 62
     7
370
    25
100
AcDbPolyline
 90
       58
 70
   128
 43
0.0
 10
459.5978156713
 20
-134.4619070632
 10
460.256608386
 20
-134.8586027375
 10
461.935551857
 20
-136.0303875852
 10
463.5069118183
 20
-137.3705365919
 10
464.9656547301
 20
-138.8747568563
 10
466.3071077991
 20
-140.5382299073
 10
467.5269739468
 20
-142.3556271393
 10
468.6213455741
 20
-144.321126881
 10
469.5867170788
 20
-146.4284330442
 10
470.4199960849
 20
-148.670795292
 10
471.1185133485
 20
-151.0410306621
 10
471.6800313083
 20
-153.531546576
 10
472.1027512529
 20
-156.1343651605
 10
472.385319083
 20
-158.8411488028
 10
472.5268296485
 20
-161.643226859
 10
472.5268296485
 20
-164.5316234284
 10
472.385319083
 20
-167.4970861058
 10
472.1027512529
 20
-170.5301156204
 10
471.6800313083
 20
-173.6209962642
 10
471.1185133485
 20
-176.7598270147
 10
470.4199960849
 20
-179.9365532507
 10
469.5867170788
 20
-183.1409989605
 10
468.6213455741
 20
-186.3628993382
 10
467.5269739468
 20
-189.5919336657
 10
466.3071077991
 20
-192.8177583726
 10
464.9656547301
 20
-196.0300401698
 10
463.5069118183
 20
-199.2184891503
 10
461.935551857
 20
-202.3728917508
 10
460.256608386
 20
-205.4831434687
 10
458.4754595674
 20
-208.5392812303
 10
456.5978109577
 20
-211.5315153047
 10
454.6296772316
 20
-214.4502606643
 10
452.5773629147
 20
-217.2861676877
 10
450.4474421885
 20
-220.0301521098
 10
448.2467378312
 20
-222.6734241211
 10
445.9822993622
 20
-225.2075165247
 10
443.6613804608
 20
-227.6243118585
 10
441.2914157299
 20
-229.9160683985
 10
438.8799968808
 20
-232.0754449576
 10
436.4348484153
 20
-234.0955244016
 10
433.9638028811
 20
-235.9698358071
 10
431.4747757818
 20
-237.6923751897
 10
428.9757402217
 20
-239.2576247363
 10
426.474701365
 20
-240.6605704808
 10
423.9796707934
 20
-241.8967183651
 10
421.4986408417
 20
-242.9621086346
 10
419.0395589971
 20
-243.8533285234
 10
416.6103024398
 20
-244.5675231853
 10
414.2186528112
 20
-245.1024048395
 10
411.8722712859
 20
-245.456260099
 10
409.5786740314
 20
-245.6279554584
 10
407.3452081311
 20
-245.616940926
 10
405.1790280496
 20
-245.4232517846
 10
403.0870727148
 20
-245.0475084788
 10
401.0760432903
 20
-244.4909146277
 10
399.1523817097
 20
-243.7552531693
 10
397.3222500408
 20
-242.842880649
 10
397.1028948815
 20
-242.7180148608
  0
ARC
  5
124
330
1F
100
AcDbEntity
  8
0
  6
Continuous
 62
     7
370
    25
100
AcDbCircle
 10
454.0333093239
 20
-144.9287251479
 30
0.0
 40
27.32193531425072
100
AcDbArc
 50
30.7197627521
 51
88.6071237694
  0
ARC
  5
125
330
1F
100
AcDbEntity
  8
0
  6
Continuous
 62
     7
370
    25
100
AcDbCircle
 10
403.4468204224
 20
-232.539933525
 30
0.0
 40
27.45034632674969
100
AcDbArc
 50
210.178765576
 51
269.4948896949
  0
LWPOLYLINE
  5
126
330
1F
100
AcDbEntity
  8
0
  6
Continuous
 62
     7
370
    25
100
AcDbPolyline
 90
       65
 70
   128
 43
0.0
 10
499.1669910026
 20
-139.4073322123
 10
499.4144332178
 20
-139.5520016365
 10
501.3120437288
 20
-140.7900218625
 10
503.105726272
 20
-142.1951910324
 10
504.7909498496
 20
-143.7639595669
 10
506.3634574405
 20
-145.4923646206
 10
507.8192767542
 20
-147.3760400922
 10
509.1547302646
 20
-149.4102276541
 10
510.3664445004
 20
-151.5897887719
 10
511.4513585662
 20
-153.9092176851
 10
512.4067318749
 20
-156.362655315
 10
513.2301510707
 20
-158.9439040651
 10
513.9195361251
 20
-161.6464434771
 10
514.4731455917
 20
-164.4634467019
 10
514.8895810049
 20
-167.3877977449
 10
515.1677904128
 20
-170.4121094415
 10
515.3070710342
 20
-173.5287421179
 10
515.3070710342
 20
-176.7298228895
 10
515.1677904128
 20
-180.0072655485
 10
514.8895810049
 20
-183.3527909902
 10
514.4731455917
 20
-186.7579481271
 10
513.9195361251
 20
-190.2141352366
 10
513.2301510707
 20
-193.7126216902
 10
512.4067318749
 20
-197.2445700075
 10
511.4513585662
 20
-200.8010581805
 10
510.3664445004
 20
-204.3731022114
 10
509.1547302646
 20
-207.951678807
 10
507.8192767542
 20
-211.5277481722
 10
506.3634574405
 20
-215.0922768454
 10
504.7909498496
 20
-218.6362605179
 10
503.105726272
 20
-222.1507467793
 10
501.3120437288
 20
-225.6268577323
 10
499.4144332178
 20
-229.055812419
 10
497.4176882678
 20
-232.4289490022
 10
495.3268528299
 20
-235.7377466462
 10
493.1472085358
 20
-238.9738470409
 10
490.8842613561
 20
-242.129075516
 10
488.5437276919
 20
-245.1954616904
 10
486.1315199343
 20
-248.1652596066
 10
483.6537315294
 20
-251.0309672972
 10
481.1166215859
 20
-253.7853457359
 10
478.5265990636
 20
-256.4214371238
 10
475.8902065842
 20
-258.9325824652
 10
473.2141039039
 20
-261.312438389
 10
470.5050510903
 20
-263.5549931727
 10
467.7698914459
 20
-265.6545819283
 10
465.0155342215
 20
-267.6059009122
 10
462.2489371623
 20
-269.4040209235
 10
459.4770889327
 20
-271.0443997548
 10
456.7069914618
 20
-272.522893667
 10
453.9456422563
 20
-273.8357678561
 10
451.200016724
 20
-274.9797058879
 10
448.4770505531
 20
-275.9518180757
 10
445.7836221926
 20
-276.7496487797
 10
443.1265354763
 20
-277.3711826103
 10
440.5125024358
 20
-277.8148495192
 10
437.9481263454
 20
-278.0795287652
 10
435.4398850417
 20
-278.1645517456
 10
432.99411456
 20
-278.0697036849
 10
430.6169931286
 20
-277.7952241776
 10
428.3145255628
 20
-277.3418065827
 10
426.0925280953
 20
-276.7105962724
 10
423.9566136846
 20
-275.9031877389
 10
421.9121778358
 20
-274.9216205659
 10
421.173329857
 20
-274.5109547437
  0
LINE
  5
127
330
1F
100
AcDbEntity
  8
0
  6
Continuous
 62
     7
370
    25
100
AcDbLine
 10
467.841130939
 20
-265.6019571106
 30
0.0
 11
474.3122960535
 21
-269.3376812141
 31
0.0
  0
LINE
  5
128
330
1F
100
AcDbEntity
  8
0
  6
Continuous
 62
     7
370
    25
100
AcDbLine
 10
506.8044636218
 20
-214.0443155515
 30
0.0
 11
514.9709359717
 21
-218.7587196903
 31
0.0
  0
LINE
  5
129
330
1F
100
AcDbEntity
  8
0
  6
Continuous
 62
     7
370
    25
100
AcDbLine
 10
474.3122960535
 20
-269.3376812141
 30
0.0
 11
514.9709359717
 21
-218.7587196903
 31
0.0
  0
LWPOLYLINE
  5
12A
330
1F
100
AcDbEntity
  8
0
  6
Continuous
 62
     7
370
    25
100
AcDbPolyline
 90
       55
 70
   128
 43
0.0
 10
520.2451691706
 20
-176.3835745366
 10
520.6630908528
 20
-176.632079306
 10
522.2617356961
 20
-177.7271507604
 10
523.7540498429
 20
-178.9894230788
 10
525.1347914853
 20
-180.4144624838
 10
526.3991107178
 20
-181.9972634725
 10
527.5425665731
 20
-183.7322663986
 10
528.5611426208
 20
-185.6133770011
 10
529.4512610753
 20
-187.6339878104
 10
530.2097953631
 20
-189.7870013573
 10
530.8340811049
 20
-192.0648551033
 10
531.3219254743
 20
-194.4595480039
 10
531.6716149
 20
-196.9626686131
 10
531.8819210853
 20
-199.5654246283
 10
531.9521053219
 20
-202.2586737742
 10
531.8819210853
 20
-205.0329559149
 10
531.6716149
 20
-207.8785262832
 10
531.3219254743
 20
-210.7853897094
 10
530.8340811049
 20
-213.7433357296
 10
530.2097953631
 20
-216.7419744508
 10
529.4512610753
 20
-219.7707730448
 10
528.5611426208
 20
-222.8190927463
 10
527.5425665731
 20
-225.8762262211
 10
526.3991107178
 20
-228.9314351764
 10
525.1347914853
 20
-231.9739880792
 10
523.7540498429
 20
-234.9931978516
 10
522.2617356961
 20
-237.9784594091
 10
520.6630908528
 20
-240.9192869116
 10
518.9637306111
 20
-243.8053505953
 10
517.1696240361
 20
-246.6265130562
 10
515.2870729924
 20
-249.3728648582
 10
513.3226900092
 20
-252.0347593406
 10
511.2833750535
 20
-254.6028465018
 10
509.1762912933
 20
-257.068105842
 10
507.0088399373
 20
-259.4218780479
 10
504.7886342374
 20
-261.6558954088
 10
502.523472747
 20
-263.7623108572
 10
500.2213119285
 20
-265.7337255321
 10
497.8902382058
 20
-267.5632147674
 10
495.5384395603
 20
-269.2443524156
 10
493.1741767706
 20
-270.7712334192
 10
490.8057543958
 20
-272.1384945532
 10
488.4414916061
 20
-273.3413332628
 10
486.0896929606
 20
-274.3755245334
 10
483.7586192379
 20
-275.2374357302
 10
481.4564584194
 20
-275.9240393589
 10
479.191296929
 20
-276.4329236991
 10
476.9710912291
 20
-276.7623012759
 10
474.803639873
 20
-276.9110151387
 10
472.6965561129
 20
-276.8785429247
 10
470.6572411571
 20
-276.6649986935
 10
468.692858174
 20
-276.2711325272
 10
466.8103071303
 20
-275.6983278949
 10
465.0162005552
 20
-274.9485967939
 10
463.7347619957
 20
-274.2730774515
  0
LINE
  5
12B
330
1F
100
AcDbEntity
  8
0
  6
Continuous
 62
     7
370
    25
100
AcDbLine
 10
514.4339255125
 20
-164.234253533
 30
0.0
 11
514.9709359717
 21
-164.5442630724
 31
0.0
  0
LINE
  5
12C
330
1F
100
AcDbEntity
  8
0
  6
Continuous
 62
     7
370
    25
100
AcDbLine
 10
514.9709359717
 20
-218.7587196903
 30
0.0
 11
514.9709359717
 21
-182.5232561777
 31
0.0
  0
LINE
  5
12D
330
1F
100
AcDbEntity
  8
0
  6
Continuous
 62
     7
370
    25
100
AcDbLine
 10
514.9709359717
 20
-168.123402112
 30
0.0
 11
514.9709359717
 21
-164.5442630724
 31
0.0
  0
LWPOLYLINE
  5
12E
330
1F
100
AcDbEntity
  8
0
  6
Continuous
 62
     7
370
    25
100
AcDbPolyline
 90
       56
 70
   128
 43
0.0
 10
520.9434295148
 20
-176.8071027312
 10
522.0773044151
 20
-177.4484874178
 10
523.6759492585
 20
-178.5435588722
 10
525.1682634053
 20
-179.8058311907
 10
526.5490050476
 20
-181.2308705957
 10
527.8133242802
 20
-182.8136715843
 10
528.9567801355
 20
-184.5486745104
 10
529.9753561831
 20
-186.4297851129
 10
530.8654746377
 20
-188.4503959222
 10
531.6240089255
 20
-190.6034094692
 10
532.2482946673
 20
-192.8812632151
 10
532.7361390367
 20
-195.2759561158
 10
533.0858284624
 20
-197.7790767249
 10
533.2961346477
 20
-200.3818327401
 10
533.3663188843
 20
-203.075081886
 10
533.2961346477
 20
-205.8493640267
 10
533.0858284624
 20
-208.694934395
 10
532.7361390367
 20
-211.6017978212
 10
532.2482946673
 20
-214.5597438415
 10
531.6240089255
 20
-217.5583825626
 10
530.8654746377
 20
-220.5871811566
 10
529.9753561831
 20
-223.6355008581
 10
528.9567801355
 20
-226.6926343329
 10
527.8133242802
 20
-229.7478432882
 10
526.5490050476
 20
-232.790396191
 10
525.1682634053
 20
-235.8096059634
 10
523.6759492585
 20
-238.7948675209
 10
522.0773044151
 20
-241.7356950235
 10
520.3779441735
 20
-244.6217587071
 10
518.5838375985
 20
-247.442921168
 10
516.7012865548
 20
-250.18927297
 10
514.7369035716
 20
-252.8511674524
 10
512.6975886159
 20
-255.4192546136
 10
510.5905048557
 20
-257.8845139538
 10
508.4230534997
 20
-260.2382861598
 10
506.2028477997
 20
-262.4723035207
 10
503.9376863094
 20
-264.5787189691
 10
501.6355254909
 20
-266.5501336439
 10
499.3044517682
 20
-268.3796228792
 10
496.9526531227
 20
-270.0607605274
 10
494.5883903329
 20
-271.587641531
 10
492.2199679582
 20
-272.954902665
 10
489.8557051684
 20
-274.1577413747
 10
487.5039065229
 20
-275.1919326452
 10
485.1728328002
 20
-276.0538438421
 10
482.8706719818
 20
-276.7404474707
 10
480.6055104914
 20
-277.2493318109
 10
478.3853047914
 20
-277.5787093877
 10
476.2178534354
 20
-277.7274232506
 10
474.1107696752
 20
-277.6949510365
 10
472.0714547195
 20
-277.4814068053
 10
470.1070717364
 20
-277.087540639
 10
468.2245206927
 20
-276.5147360067
 10
466.4304141176
 20
-275.7650049058
 10
464.731053876
 20
-274.8409807939
 10
464.4507152139
 20
-274.6659573686
  0
LINE
  5
12F
330
1F
100
AcDbEntity
  8
0
  6
Continuous
 62
     7
370
    25
100
AcDbLine
 10
463.8243055655
 20
-268.3998968209
 30
0.0
 11
474.3122960535
 21
-269.3376812141
 31
0.0
  0
LWPOLYLINE
  5
130
330
1F
100
AcDbEntity
  8
0
  6
Continuous
 62
     7
370
    25
100
AcDbPolyline
 90
       56
 70
   128
 43
0.0
 10
522.3576430772
 20
-177.6235108431
 10
523.4915179775
 20
-178.2648955296
 10
525.0901628209
 20
-179.359966984
 10
526.5824769677
 20
-180.6222393025
 10
527.96321861
 20
-182.0472787075
 10
529.2275378425
 20
-183.6300796962
 10
530.3709936978
 20
-185.3650826223
 10
531.3895697455
 20
-187.2461932248
 10
532.2796882
 20
-189.2668040341
 10
533.0382224879
 20
-191.419817581
 10
533.6625082297
 20
-193.697671327
 10
534.150352599
 20
-196.0923642276
 10
534.5000420248
 20
-198.5954848367
 10
534.71034821
 20
-201.1982408519
 10
534.7805324467
 20
-203.8914899978
 10
534.71034821
 20
-206.6657721385
 10
534.5000420248
 20
-209.5113425068
 10
534.150352599
 20
-212.418205933
 10
533.6625082297
 20
-215.3761519533
 10
533.0382224879
 20
-218.3747906744
 10
532.2796882
 20
-221.4035892685
 10
531.3895697455
 20
-224.45190897
 10
530.3709936978
 20
-227.5090424448
 10
529.2275378425
 20
-230.5642514
 10
527.96321861
 20
-233.6068043029
 10
526.5824769677
 20
-236.6260140753
 10
525.0901628209
 20
-239.6112756328
 10
523.4915179775
 20
-242.5521031353
 10
521.7921577359
 20
-245.4381668189
 10
519.9980511608
 20
-248.2593292798
 10
518.1155001171
 20
-251.0056810819
 10
516.151117134
 20
-253.6675755642
 10
514.1118021782
 20
-256.2356627254
 10
512.0047184181
 20
-258.7009220657
 10
509.8372670621
 20
-261.0546942716
 10
507.6170613621
 20
-263.2887116325
 10
505.3518998717
 20
-265.3951270809
 10
503.0497390533
 20
-267.3665417557
 10
500.7186653305
 20
-269.1960309911
 10
498.3668666851
 20
-270.8771686392
 10
496.0026038953
 20
-272.4040496429
 10
493.6341815206
 20
-273.7713107768
 10
491.2699187308
 20
-274.9741494865
 10
488.9181200853
 20
-276.008340757
 10
486.5870463626
 20
-276.8702519539
 10
484.2848855441
 20
-277.5568555825
 10
482.0197240537
 20
-278.0657399227
 10
479.7995183538
 20
-278.3951174996
 10
477.6320669978
 20
-278.5438313624
 10
475.5249832376
 20
-278.5113591483
 10
473.4856682819
 20
-278.2978149171
 10
471.5212852987
 20
-277.9039487508
 10
469.638734255
 20
-277.3311441186
 10
467.84462768
 20
-276.5814130176
 10
466.1452674384
 20
-275.6573889057
 10
465.8649287763
 20
-275.4823654804
  0
LWPOLYLINE
  5
131
330
1F
100
AcDbEntity
  8
0
  6
Continuous
 62
     7
370
    25
100
AcDbPolyline
 90
       56
 70
   128
 43
0.0
 10
523.7718566396
 20
-178.4399189549
 10
524.9057315399
 20
-179.0813036414
 10
526.5043763832
 20
-180.1763750958
 10
527.99669053
 20
-181.4386474143
 10
529.3774321724
 20
-182.8636868193
 10
530.6417514049
 20
-184.446487808
 10
531.7852072602
 20
-186.1814907341
 10
532.8037833079
 20
-188.0626013366
 10
533.6939017624
 20
-190.0832121459
 10
534.4524360502
 20
-192.2362256928
 10
535.0767217921
 20
-194.5140794388
 10
535.5645661614
 20
-196.9087723394
 10
535.9142555871
 20
-199.4118929485
 10
536.1245617724
 20
-202.0146489638
 10
536.1947460091
 20
-204.7078981097
 10
536.1245617724
 20
-207.4821802503
 10
535.9142555871
 20
-210.3277506186
 10
535.5645661614
 20
-213.2346140448
 10
535.0767217921
 20
-216.1925600651
 10
534.4524360502
 20
-219.1911987862
 10
533.6939017624
 20
-222.2199973803
 10
532.8037833079
 20
-225.2683170818
 10
531.7852072602
 20
-228.3254505566
 10
530.6417514049
 20
-231.3806595118
 10
529.3774321724
 20
-234.4232124147
 10
527.99669053
 20
-237.4424221871
 10
526.5043763832
 20
-240.4276837446
 10
524.9057315399
 20
-243.3685112471
 10
523.2063712983
 20
-246.2545749308
 10
521.4122647232
 20
-249.0757373916
 10
519.5297136795
 20
-251.8220891937
 10
517.5653306963
 20
-254.483983676
 10
515.5260157406
 20
-257.0520708372
 10
513.4189319805
 20
-259.5173301775
 10
511.2514806244
 20
-261.8711023834
 10
509.0312749245
 20
-264.1051197443
 10
506.7661134341
 20
-266.2115351927
 10
504.4639526156
 20
-268.1829498676
 10
502.1328788929
 20
-270.0124391029
 10
499.7810802474
 20
-271.693576751
 10
497.4168174577
 20
-273.2204577547
 10
495.0483950829
 20
-274.5877188886
 10
492.6841322932
 20
-275.7905575983
 10
490.3323336477
 20
-276.8247488689
 10
488.001259925
 20
-277.6866600657
 10
485.6990991065
 20
-278.3732636944
 10
483.4339376161
 20
-278.8821480345
 10
481.2137319162
 20
-279.2115256114
 10
479.0462805601
 20
-279.3602394742
 10
476.9391968
 20
-279.3277672601
 10
474.8998818443
 20
-279.114223029
 10
472.9354988611
 20
-278.7203568626
 10
471.0529478174
 20
-278.1475522304
 10
469.2588412423
 20
-277.3978211294
 10
467.5594810007
 20
-276.4737970175
 10
467.2791423387
 20
-276.2987735922
  0
LWPOLYLINE
  5
132
330
1F
100
AcDbEntity
  8
0
  6
Continuous
 62
     1
370
    25
100
AcDbPolyline
 90
       88
 70
   128
 43
0.0
 10
436.6830752786
 20
-121.2335090089
 10
439.3816702927
 20
-120.2351899089
 10
442.0863084357
 20
-119.3985920523
 10
444.755686584
 20
-118.7396074473
 10
447.3829524821
 20
-118.2599276979
 10
449.9613619761
 20
-117.9607841353
 10
452.4842963259
 20
-117.8429446566
 10
454.9452791951
 20
-117.9067117541
 10
457.3379932761
 20
-118.1519217386
 10
459.6562965061
 20
-118.5779451595
 10
461.8942378339
 20
-119.1836884209
 10
464.0460724963
 20
-119.9675965884
 10
466.1062767645
 20
-120.9276573811
 10
468.0695621238
 20
-122.0614063367
 10
469.9308888487
 20
-123.3659331379
 10
471.6854789403
 20
-124.837889083
 10
473.328828391
 20
-126.4734956823
 10
474.8567187463
 20
-128.2685543571
 10
476.2652279336
 20
-130.2184572175
 10
477.55074033
 20
-132.3181988908
 10
478.7099560435
 20
-134.5623893704
 10
479.7398993842
 20
-136.9452678513
 10
480.6379265021
 20
-139.4607175188
 10
481.4017321747
 20
-142.1022812495
 10
482.0293557236
 20
-144.8631781874
 10
482.5191860482
 20
-147.7363211495
 10
482.8699657612
 20
-150.7143348191
 10
483.0807944159
 20
-153.7895746777
 10
483.1511308184
 20
-156.9541466289
 10
483.0807944159
 20
-160.1999272617
 10
482.8699657612
 20
-163.5185847038
 10
482.5191860482
 20
-166.9016000093
 10
482.0293557236
 20
-170.3402890262
 10
481.4017321747
 20
-173.8258246893
 10
480.6379265021
 20
-177.3492596784
 10
479.7398993842
 20
-180.9015493865
 10
478.7099560435
 20
-184.4735751368
 10
477.55074033
 20
-188.0561675905
 10
476.2652279336
 20
-191.6401302842
 10
474.8567187463
 20
-195.2162632369
 10
473.328828391
 20
-198.7753865668
 10
471.6854789403
 20
-202.3083640552
 10
469.9308888487
 20
-205.8061265996
 10
468.0695621238
 20
-209.2596954937
 10
466.1062767645
 20
-212.6602054758
 10
464.0460724963
 20
-215.9989274853
 10
461.8942378339
 20
-219.267291071
 10
459.6562965061
 20
-222.4569063902
 10
457.3379932761
 20
-225.5595857462
 10
454.9452791951
 20
-228.5673646056
 10
452.4842963259
 20
-231.4725220432
 10
449.9613619761
 20
-234.2676005616
 10
447.3829524821
 20
-236.9454252342
 10
444.755686584
 20
-239.4991221236
 10
442.0863084357
 20
-241.9221359264
 10
439.3816702927
 20
-244.2082468009
 10
436.6487149222
 20
-246.3515863334
 10
433.8944577816
 20
-248.346652602
 10
431.1259690093
 20
-250.1883243002
 10
428.3503552764
 20
-251.8718738831
 10
425.5747415435
 20
-253.3929797032
 10
422.8062527712
 20
-254.7477371036
 10
420.0519956305
 20
-255.9326684414
 10
417.3190402601
 20
-256.944732015
 10
414.6144021171
 20
-257.7813298717
 10
411.9450239688
 20
-258.4403144767
 10
409.3177580707
 20
-258.9199942261
 10
406.7393485767
 20
-259.2191377887
 10
404.2164142269
 20
-259.3369772674
 10
401.7554313577
 20
-259.2732101699
 10
399.3627172767
 20
-259.0280001854
 10
397.0444140467
 20
-258.6019767645
 10
394.8064727189
 20
-257.9962335031
 10
392.6546380565
 20
-257.2123253356
 10
390.5944337883
 20
-256.2522645428
 10
388.631148429
 20
-255.1185155873
 10
386.7698217041
 20
-253.8139887861
 10
385.0152316124
 20
-252.342032841
 10
383.3718821617
 20
-250.7064262417
 10
381.8439918065
 20
-248.9113675669
 10
380.4354826192
 20
-246.9614647065
 10
379.1499702228
 20
-244.8617230331
 10
377.9907545093
 20
-242.6175325536
 10
376.9608111686
 20
-240.2346540727
 10
376.0627840506
 20
-237.7192044052
 10
375.2989783781
 20
-235.0776406745
 10
374.6713548292
 20
-232.3167437366
 10
374.1881544888
 20
-229.4896168065
  0
LWPOLYLINE
  5
133
330
1F
100
AcDbEntity
  8
0
  6
Continuous
 62
     1
370
    25
100
AcDbPolyline
 90
       53
 70
   128
 43
0.0
 10
477.5213247036
 20
-130.9716021336
 10
477.6884785018
 20
-131.2451471661
 10
478.9001927376
 20
-133.4247082839
 10
479.9851068034
 20
-135.7441371971
 10
480.9404801121
 20
-138.1975748269
 10
481.7638993079
 20
-140.778823577
 10
482.4532843623
 20
-143.481362989
 10
483.0068938289
 20
-146.2983662138
 10
483.4233292421
 20
-149.2227172568
 10
483.70153865
 20
-152.2470289534
 10
483.8408192714
 20
-155.3636616299
 10
483.8408192714
 20
-158.5647424015
 10
483.70153865
 20
-161.8421850605
 10
483.4233292421
 20
-165.1877105022
 10
483.0068938289
 20
-168.592867639
 10
482.4532843623
 20
-172.0490547486
 10
481.7638993079
 20
-175.5475412022
 10
480.9404801121
 20
-179.0794895195
 10
479.9851068034
 20
-182.6359776925
 10
478.9001927376
 20
-186.2080217233
 10
477.6884785018
 20
-189.7865983189
 10
476.3530249914
 20
-193.3626676841
 10
474.8972056777
 20
-196.9271963573
 10
473.3246980868
 20
-200.4711800298
 10
471.6394745092
 20
-203.9856662912
 10
469.845791966
 20
-207.4617772443
 10
467.948181455
 20
-210.8907319309
 10
465.951436505
 20
-214.2638685142
 10
463.8606010671
 20
-217.5726661581
 10
461.680956773
 20
-220.8087665529
 10
459.4180095933
 20
-223.9639950279
 10
457.0774759291
 20
-227.0303812024
 10
454.6652681715
 20
-230.0001791185
 10
452.1874797666
 20
-232.8658868091
 10
449.6503698231
 20
-235.6202652478
 10
447.0603473008
 20
-238.2563566357
 10
444.4239548214
 20
-240.7675019771
 10
441.7478521411
 20
-243.147357901
 10
439.0387993275
 20
-245.3899126847
 10
436.3036396831
 20
-247.4895014402
 10
433.5492824587
 20
-249.4408204242
 10
430.7826853995
 20
-251.2389404354
 10
428.0108371699
 20
-252.8793192668
 10
425.240739699
 20
-254.357813179
 10
422.4793904935
 20
-255.670687368
 10
419.7337649612
 20
-256.8146253998
 10
417.0107987903
 20
-257.7867375876
 10
414.3173704298
 20
-258.5845682916
 10
411.6602837135
 20
-259.2061021223
 10
409.046250673
 20
-259.6497690311
 10
406.4818745826
 20
-259.9144482771
 10
403.9736332789
 20
-259.9994712575
 10
403.2048257532
 20
-259.989213152
  0
LINE
  5
134
330
1F
100
AcDbEntity
  8
0
  6
Continuous
 62
     7
370
    25
100
AcDbLine
 10
61.8323425481
 20
-142.2372307058
 30
0.0
 11
61.8323425481
 21
-186.7372307058
 31
0.0
  0
LINE
  5
135
330
1F
100
AcDbEntity
  8
0
  6
Continuous
 62
     7
370
    25
100
AcDbLine
 10
217.8323425481
 20
-186.7372307058
 30
0.0
 11
217.8323425481
 21
-142.2372307058
 31
0.0
  0
ARC
  5
136
330
1F
100
AcDbEntity
  8
0
  6
Continuous
 62
     7
370
    25
100
AcDbCircle
 10
62.3323425481
 20
-186.7372307058
 30
0.0
 40
0.5
100
AcDbArc
 50
180.0
 51
270.0
  0
ARC
  5
137
330
1F
100
AcDbEntity
  8
0
  6
Continuous
 62
     7
370
    25
100
AcDbCircle
 10
217.3323425481
 20
-186.7372307058
 30
0.0
 40
0.5000000000000284
100
AcDbArc
 50
270.0
 51
0.0
  0
LINE
  5
138
330
1F
100
AcDbEntity
  8
0
  6
Continuous
 62
     7
370
    25
100
AcDbLine
 10
77.3323425481
 20
-187.2372307058
 30
0.0
 11
77.3323425481
 21
-276.2372307058
 31
0.0
  0
LINE
  5
139
330
1F
100
AcDbEntity
  8
0
  6
Continuous
 62
     7
370
    25
100
AcDbLine
 10
202.3323425481
 20
-276.2372307058
 30
0.0
 11
202.3323425481
 21
-187.2372307058
 31
0.0
  0
LINE
  5
13A
330
1F
100
AcDbEntity
  8
0
  6
Continuous
 62
     7
370
    25
100
AcDbLine
 10
196.3473425481
 20
-91.2372307058
 30
0.0
 11
194.6152917405
 21
-90.2372307058
 31
0.0
  0
LINE
  5
13B
330
1F
100
AcDbEntity
  8
0
  6
Continuous
 62
     7
370
    25
100
AcDbLine
 10
85.0493933556
 20
-90.2372307058
 30
0.0
 11
83.3173425481
 21
-91.2372307058
 31
0.0
  0
LINE
  5
13C
330
1F
100
AcDbEntity
  8
0
  6
Continuous
 62
     7
370
    25
100
AcDbLine
 10
196.3473425481
 20
-93.2372307058
 30
0.0
 11
194.6152917405
 21
-92.2372307058
 31
0.0
  0
LINE
  5
13D
330
1F
100
AcDbEntity
  8
0
  6
Continuous
 62
     7
370
    25
100
AcDbLine
 10
85.0493933556
 20
-92.2372307058
 30
0.0
 11
83.3173425481
 21
-93.2372307058
 31
0.0
  0
LINE
  5
13E
330
1F
100
AcDbEntity
  8
0
  6
Continuous
 62
     7
370
    25
100
AcDbLine
 10
83.3173425481
 20
-91.2372307058
 30
0.0
 11
85.0493933556
 21
-92.2372307058
 31
0.0
  0
LINE
  5
13F
330
1F
100
AcDbEntity
  8
0
  6
Continuous
 62
     7
370
    25
100
AcDbLine
 10
194.6152917405
 20
-92.2372307058
 30
0.0
 11
196.3473425481
 21
-91.2372307058
 31
0.0
  0
LINE
  5
140
330
1F
100
AcDbEntity
  8
0
  6
Continuous
 62
     7
370
    25
100
AcDbLine
 10
83.3173425481
 20
-93.2372307058
 30
0.0
 11
85.0493933556
 21
-94.2372307058
 31
0.0
  0
LINE
  5
141
330
1F
100
AcDbEntity
  8
0
  6
Continuous
 62
     7
370
    25
100
AcDbLine
 10
194.6152917405
 20
-94.2372307058
 30
0.0
 11
196.3473425481
 21
-93.2372307058
 31
0.0
  0
LINE
  5
142
330
1F
100
AcDbEntity
  8
0
  6
Continuous
 62
     7
370
    25
100
AcDbLine
 10
196.3473425481
 20
-95.2372307058
 30
0.0
 11
194.6152917405
 21
-94.2372307058
 31
0.0
  0
LINE
  5
143
330
1F
100
AcDbEntity
  8
0
  6
Continuous
 62
     7
370
    25
100
AcDbLine
 10
85.0493933556
 20
-94.2372307058
 30
0.0
 11
83.3173425481
 21
-95.2372307058
 31
0.0
  0
LINE
  5
144
330
1F
100
AcDbEntity
  8
0
  6
Continuous
 62
     7
370
    25
100
AcDbLine
 10
83.3173425481
 20
-95.2372307058
 30
0.0
 11
85.0493933556
 21
-96.2372307058
 31
0.0
  0
LINE
  5
145
330
1F
100
AcDbEntity
  8
0
  6
Continuous
 62
     7
370
    25
100
AcDbLine
 10
194.6152917405
 20
-96.2372307058
 30
0.0
 11
196.3473425481
 21
-95.2372307058
 31
0.0
  0
LINE
  5
146
330
1F
100
AcDbEntity
  8
0
  6
Continuous
 62
     7
370
    25
100
AcDbLine
 10
196.3473425481
 20
-97.2372307058
 30
0.0
 11
194.6152917405
 21
-96.2372307058
 31
0.0
  0
LINE
  5
147
330
1F
100
AcDbEntity
  8
0
  6
Continuous
 62
     7
370
    25
100
AcDbLine
 10
85.0493933556
 20
-96.2372307058
 30
0.0
 11
83.3173425481
 21
-97.2372307058
 31
0.0
  0
LINE
  5
148
330
1F
100
AcDbEntity
  8
0
  6
Continuous
 62
     7
370
    25
100
AcDbLine
 10
83.3173425481
 20
-97.2372307058
 30
0.0
 11
83.3173425481
 21
-122.2372307058
 31
0.0
  0
LINE
  5
149
330
1F
100
AcDbEntity
  8
0
  6
Continuous
 62
     7
370
    25
100
AcDbLine
 10
196.3473425481
 20
-122.2372307058
 30
0.0
 11
196.3473425481
 21
-97.2372307058
 31
0.0
  0
LINE
  5
14A
330
1F
100
AcDbEntity
  8
0
  6
Continuous
 62
     7
370
    25
100
AcDbLine
 10
61.8323425481
 20
-142.2372307058
 30
0.0
 11
217.8323425481
 21
-142.2372307058
 31
0.0
  0
LINE
  5
14B
330
1F
100
AcDbEntity
  8
0
  6
Continuous
 62
     7
370
    25
100
AcDbLine
 10
62.3323425481
 20
-187.2372307058
 30
0.0
 11
217.3323425457
 21
-187.2372307058
 31
0.0
  0
LINE
  5
14C
330
1F
100
AcDbEntity
  8
0
  6
Continuous
 62
     7
370
    25
100
AcDbLine
 10
197.3323425481
 20
-142.2372307058
 30
0.0
 11
197.3323425481
 21
-122.2372307058
 31
0.0
  0
LINE
  5
14D
330
1F
100
AcDbEntity
  8
0
  6
Continuous
 62
     7
370
    25
100
AcDbLine
 10
139.8323425481
 20
-142.2372307058
 30
0.0
 11
139.8323425481
 21
-122.2372307058
 31
0.0
  0
LINE
  5
14E
330
1F
100
AcDbEntity
  8
0
  6
Continuous
 62
     7
370
    25
100
AcDbLine
 10
197.3323425481
 20
-122.2372307058
 30
0.0
 11
139.8323425481
 21
-122.2372307058
 31
0.0
  0
LINE
  5
14F
330
1F
100
AcDbEntity
  8
0
  6
Continuous
 62
     7
370
    25
100
AcDbLine
 10
82.3323425481
 20
-142.2372307058
 30
0.0
 11
82.3323425481
 21
-122.2372307058
 31
0.0
  0
LINE
  5
150
330
1F
100
AcDbEntity
  8
0
  6
Continuous
 62
     7
370
    25
100
AcDbLine
 10
139.8323425481
 20
-122.2372307058
 30
0.0
 11
82.3323425481
 21
-122.2372307058
 31
0.0
  0
LINE
  5
151
330
1F
100
AcDbEntity
  8
0
  6
Continuous
 62
     7
370
    25
100
AcDbLine
 10
77.3323425481
 20
-276.2372307058
 30
0.0
 11
202.3323425481
 21
-276.2372307058
 31
0.0
  0
LINE
  5
152
330
1F
100
AcDbEntity
  8
0
  6
Continuous
 62
     7
370
    25
100
AcDbLine
 10
83.3173425481
 20
-91.2372307058
 30
0.0
 11
196.3473425481
 21
-91.2372307058
 31
0.0
  0
LINE
  5
153
330
1F
100
AcDbEntity
  8
0
  6
Continuous
 62
     7
370
    25
100
AcDbLine
 10
85.0493933556
 20
-90.2372307058
 30
0.0
 11
194.6152917405
 21
-90.2372307058
 31
0.0
  0
LINE
  5
154
330
1F
100
AcDbEntity
  8
0
  6
Continuous
 62
     7
370
    25
100
AcDbLine
 10
83.3173425481
 20
-93.2372307058
 30
0.0
 11
196.3473425481
 21
-93.2372307058
 31
0.0
  0
LINE
  5
155
330
1F
100
AcDbEntity
  8
0
  6
Continuous
 62
     7
370
    25
100
AcDbLine
 10
85.0493933556
 20
-92.2372307058
 30
0.0
 11
194.6152917405
 21
-92.2372307058
 31
0.0
  0
LINE
  5
156
330
1F
100
AcDbEntity
  8
0
  6
Continuous
 62
     7
370
    25
100
AcDbLine
 10
85.0493933556
 20
-94.2372307058
 30
0.0
 11
194.6152917405
 21
-94.2372307058
 31
0.0
  0
LINE
  5
157
330
1F
100
AcDbEntity
  8
0
  6
Continuous
 62
     7
370
    25
100
AcDbLine
 10
83.3173425481
 20
-95.2372307058
 30
0.0
 11
196.3473425481
 21
-95.2372307058
 31
0.0
  0
LINE
  5
158
330
1F
100
AcDbEntity
  8
0
  6
Continuous
 62
     7
370
    25
100
AcDbLine
 10
85.0493933556
 20
-96.2372307058
 30
0.0
 11
194.6152917405
 21
-96.2372307058
 31
0.0
  0
LINE
  5
159
330
1F
100
AcDbEntity
  8
0
  6
Continuous
 62
     7
370
    25
100
AcDbLine
 10
83.3173425481
 20
-97.2372307058
 30
0.0
 11
196.3473425481
 21
-97.2372307058
 31
0.0
  0
LINE
  5
15A
330
1F
100
AcDbEntity
  8
0
  6
Continuous
 62
     1
370
    25
100
AcDbLine
 10
61.8323425481
 20
-186.7372307058
 30
0.0
 11
217.8323425481
 21
-186.7372307058
 31
0.0
  0
ENDSEC
  0
SECTION
  2
OBJECTS
  0
DICTIONARY
  5
C
330
0
100
AcDbDictionary
281
     1
  3
ACAD_GROUP
350
D
  3
ACAD_LAYOUT
350
1A
  3
ACAD_MLINESTYLE
350
17
  3
ACAD_PLOTSETTINGS
350
19
  3
ACAD_PLOTSTYLENAME
350
E
  3
ACAD_SCALELIST
350
47
  3
DWGPROPS
350
15B
  0
DICTIONARY
  5
D
102
{ACAD_REACTORS
330
C
102
}
330
C
100
AcDbDictionary
281
     1
  0
DICTIONARY
  5
1A
102
{ACAD_REACTORS
330
C
102
}
330
C
100
AcDbDictionary
281
     1
  3
Layout1
350
1E
  3
Layout2
350
26
  3
Model
350
22
  0
DICTIONARY
  5
17
102
{ACAD_REACTORS
330
C
102
}
330
C
100
AcDbDictionary
281
     1
  3
Standard
350
18
  0
DICTIONARY
  5
19
102
{ACAD_REACTORS
330
C
102
}
330
C
100
AcDbDictionary
281
     1
  0
ACDBDICTIONARYWDFLT
  5
E
102
{ACAD_REACTORS
330
C
102
}
330
C
100
AcDbDictionary
281
     1
  3
Normal
350
F
100
AcDbDictionaryWithDefault
340
F
  0
DICTIONARY
  5
47
102
{ACAD_REACTORS
330
C
102
}
330
C
100
AcDbDictionary
281
     1
  3
A0
350
48
  3
A1
350
49
  3
A2
350
4A
  3
A3
350
4B
  3
A4
350
4C
  3
A5
350
4D
  3
A6
350
4E
  3
A7
350
4F
  3
A8
350
50
  3
A9
350
51
  3
B0
350
52
  3
B1
350
53
  3
B2
350
54
  3
B3
350
55
  3
B4
350
56
  3
B5
350
57
  3
B6
350
58
  3
B7
350
59
  3
B8
350
5A
  3
B9
350
5B
  3
C0
350
5C
  3
C1
350
5D
  3
C2
350
5E
  3
C3
350
5F
  3
C4
350
60
  3
C5
350
61
  3
C6
350
62
  3
C7
350
63
  3
C8
350
64
  3
C9
350
65
  3
D0
350
66
  3
D1
350
67
  3
D2
350
68
  0
XRECORD
  5
15B
102
{ACAD_REACTORS
330
C
102
}
330
C
100
AcDbXrecord
280
     1
  1
DWGPROPS COOKIE
  2

  3

  4

  6

  7

  8
b.kav
  9

300
=
301
=
302
=
303
=
304
=
305
=
306
=
307
=
308
=
309
=
 40
0.0
 41
2459948.454445139
 42
2459948.45444522
  1

 90
        0
  0
LAYOUT
  5
1E
102
{ACAD_REACTORS
330
1A
102
}
330
1A
100
AcDbPlotSettings
  1

  2
none_device
  4

  6

 40
0.0
 41
0.0
 42
0.0
 43
0.0
 44
0.0
 45
0.0
 46
0.0
 47
0.0
 48
0.0
 49
0.0
140
0.0
141
0.0
142
1.0
143
1.0
 70
   688
 72
     1
 73
     0
 74
     5
  7

 75
    16
147
1.0
148
0.0
149
0.0
100
AcDbLayout
  1
Layout1
 70
     1
 71
     1
 10
0.0
 20
0.0
 11
420.0
 21
297.0
 12
0.0
 22
0.0
 32
0.0
 14
1.0000000000E+20
 24
1.0000000000E+20
 34
1.0000000000E+20
 15
-1.0000000000E+20
 25
-1.0000000000E+20
 35
-1.0000000000E+20
146
0.0
 13
0.0
 23
0.0
 33
0.0
 16
1.0
 26
0.0
 36
0.0
 17
0.0
 27
1.0
 37
0.0
 76
     0
330
1B
  0
LAYOUT
  5
26
102
{ACAD_REACTORS
330
1A
102
}
330
1A
100
AcDbPlotSettings
  1

  2
none_device
  4

  6

 40
0.0
 41
0.0
 42
0.0
 43
0.0
 44
0.0
 45
0.0
 46
0.0
 47
0.0
 48
0.0
 49
0.0
140
0.0
141
0.0
142
1.0
143
1.0
 70
   688
 72
     1
 73
     0
 74
     5
  7

 75
    16
147
1.0
148
0.0
149
0.0
100
AcDbLayout
  1
Layout2
 70
     1
 71
     2
 10
0.0
 20
0.0
 11
0.0
 21
0.0
 12
0.0
 22
0.0
 32
0.0
 14
0.0
 24
0.0
 34
0.0
 15
0.0
 25
0.0
 35
0.0
146
0.0
 13
0.0
 23
0.0
 33
0.0
 16
1.0
 26
0.0
 36
0.0
 17
0.0
 27
1.0
 37
0.0
 76
     0
330
23
  0
LAYOUT
  5
22
102
{ACAD_REACTORS
330
1A
102
}
330
1A
100
AcDbPlotSettings
  1

  2
none_device
  4
Letter_(8.50_x_11.00_Inches)
  6

 40
6.35
 41
6.35
 42
6.35000508
 43
6.35000508
 44
215.9
 45
279.4
 46
0.0
 47
0.0
 48
0.0
 49
0.0
140
0.0
141
0.0
142
1.0
143
1.0
 70
  1712
 72
     1
 73
     0
 74
     0
  7

 75
     0
147
1.0
148
0.0
149
0.0
100
AcDbLayout
  1
Model
 70
     1
 71
     0
 10
0.0
 20
0.0
 11
279.4
 21
215.9
 12
0.0
 22
0.0
 32
0.0
 14
0.0
 24
0.0
 34
0.0
 15
279.4
 25
215.9
 35
0.0
146
0.0
 13
0.0
 23
0.0
 33
0.0
 16
1.0
 26
0.0
 36
0.0
 17
0.0
 27
1.0
 37
0.0
 76
     0
330
1F
331
29
  0
MLINESTYLE
  5
18
102
{ACAD_REACTORS
330
17
102
}
330
17
100
AcDbMlineStyle
  2
Standard
 70
     0
  3

 62
   256
 51
90.0
 52
90.0
 71
     2
 49
0.5
 62
   256
  6
BYLAYER
 49
-0.5
 62
   256
  6
BYLAYER
  0
ACDBPLACEHOLDER
  5
F
102
{ACAD_REACTORS
330
E
102
}
330
E
  0
SCALE
  5
48
102
{ACAD_REACTORS
330
47
102
}
330
47
100
AcDbScale
 70
     0
300
1:1
140
1.0
141
1.0
290
     1
  0
SCALE
  5
49
102
{ACAD_REACTORS
330
47
102
}
330
47
100
AcDbScale
 70
     0
300
1:2
140
1.0
141
2.0
290
     0
  0
SCALE
  5
4A
102
{ACAD_REACTORS
330
47
102
}
330
47
100
AcDbScale
 70
     0
300
1:4
140
1.0
141
4.0
290
     0
  0
SCALE
  5
4B
102
{ACAD_REACTORS
330
47
102
}
330
47
100
AcDbScale
 70
     0
300
1:5
140
1.0
141
5.0
290
     0
  0
SCALE
  5
4C
102
{ACAD_REACTORS
330
47
102
}
330
47
100
AcDbScale
 70
     0
300
1:8
140
1.0
141
8.0
290
     0
  0
SCALE
  5
4D
102
{ACAD_REACTORS
330
47
102
}
330
47
100
AcDbScale
 70
     0
300
1:10
140
1.0
141
10.0
290
     0
  0
SCALE
  5
4E
102
{ACAD_REACTORS
330
47
102
}
330
47
100
AcDbScale
 70
     0
300
1:16
140
1.0
141
16.0
290
     0
  0
SCALE
  5
4F
102
{ACAD_REACTORS
330
47
102
}
330
47
100
AcDbScale
 70
     0
300
1:20
140
1.0
141
20.0
290
     0
  0
SCALE
  5
50
102
{ACAD_REACTORS
330
47
102
}
330
47
100
AcDbScale
 70
     0
300
1:30
140
1.0
141
30.0
290
     0
  0
SCALE
  5
51
102
{ACAD_REACTORS
330
47
102
}
330
47
100
AcDbScale
 70
     0
300
1:40
140
1.0
141
40.0
290
     0
  0
SCALE
  5
52
102
{ACAD_REACTORS
330
47
102
}
330
47
100
AcDbScale
 70
     0
300
1:50
140
1.0
141
50.0
290
     0
  0
SCALE
  5
53
102
{ACAD_REACTORS
330
47
102
}
330
47
100
AcDbScale
 70
     0
300
1:100
140
1.0
141
100.0
290
     0
  0
SCALE
  5
54
102
{ACAD_REACTORS
330
47
102
}
330
47
100
AcDbScale
 70
     0
300
2:1
140
2.0
141
1.0
290
     0
  0
SCALE
  5
55
102
{ACAD_REACTORS
330
47
102
}
330
47
100
AcDbScale
 70
     0
300
4:1
140
4.0
141
1.0
290
     0
  0
SCALE
  5
56
102
{ACAD_REACTORS
330
47
102
}
330
47
100
AcDbScale
 70
     0
300
8:1
140
8.0
141
1.0
290
     0
  0
SCALE
  5
57
102
{ACAD_REACTORS
330
47
102
}
330
47
100
AcDbScale
 70
     0
300
10:1
140
10.0
141
1.0
290
     0
  0
SCALE
  5
58
102
{ACAD_REACTORS
330
47
102
}
330
47
100
AcDbScale
 70
     0
300
100:1
140
100.0
141
1.0
290
     0
  0
SCALE
  5
59
102
{ACAD_REACTORS
330
47
102
}
330
47
100
AcDbScale
 70
     0
300
1/128" = 1'-0"
140
0.0078125
141
12.0
290
     0
  0
SCALE
  5
5A
102
{ACAD_REACTORS
330
47
102
}
330
47
100
AcDbScale
 70
     0
300
1/64" = 1'-0"
140
0.015625
141
12.0
290
     0
  0
SCALE
  5
5B
102
{ACAD_REACTORS
330
47
102
}
330
47
100
AcDbScale
 70
     0
300
1/32" = 1'-0"
140
0.03125
141
12.0
290
     0
  0
SCALE
  5
5C
102
{ACAD_REACTORS
330
47
102
}
330
47
100
AcDbScale
 70
     0
300
1/16" = 1'-0"
140
0.0625
141
12.0
290
     0
  0
SCALE
  5
5D
102
{ACAD_REACTORS
330
47
102
}
330
47
100
AcDbScale
 70
     0
300
3/32" = 1'-0"
140
0.09375
141
12.0
290
     0
  0
SCALE
  5
5E
102
{ACAD_REACTORS
330
47
102
}
330
47
100
AcDbScale
 70
     0
300
1/8" = 1'-0"
140
0.125
141
12.0
290
     0
  0
SCALE
  5
5F
102
{ACAD_REACTORS
330
47
102
}
330
47
100
AcDbScale
 70
     0
300
3/16" = 1'-0"
140
0.1875
141
12.0
290
     0
  0
SCALE
  5
60
102
{ACAD_REACTORS
330
47
102
}
330
47
100
AcDbScale
 70
     0
300
1/4" = 1'-0"
140
0.25
141
12.0
290
     0
  0
SCALE
  5
61
102
{ACAD_REACTORS
330
47
102
}
330
47
100
AcDbScale
 70
     0
300
3/8" = 1'-0"
140
0.375
141
12.0
290
     0
  0
SCALE
  5
62
102
{ACAD_REACTORS
330
47
102
}
330
47
100
AcDbScale
 70
     0
300
1/2" = 1'-0"
140
0.5
141
12.0
290
     0
  0
SCALE
  5
63
102
{ACAD_REACTORS
330
47
102
}
330
47
100
AcDbScale
 70
     0
300
3/4" = 1'-0"
140
0.75
141
12.0
290
     0
  0
SCALE
  5
64
102
{ACAD_REACTORS
330
47
102
}
330
47
100
AcDbScale
 70
     0
300
1" = 1'-0"
140
1.0
141
12.0
290
     0
  0
SCALE
  5
65
102
{ACAD_REACTORS
330
47
102
}
330
47
100
AcDbScale
 70
     0
300
1-1/2" = 1'-0"
140
1.5
141
12.0
290
     0
  0
SCALE
  5
66
102
{ACAD_REACTORS
330
47
102
}
330
47
100
AcDbScale
 70
     0
300
3" = 1'-0"
140
3.0
141
12.0
290
     0
  0
SCALE
  5
67
102
{ACAD_REACTORS
330
47
102
}
330
47
100
AcDbScale
 70
     0
300
6" = 1'-0"
140
6.0
141
12.0
290
     0
  0
SCALE
  5
68
102
{ACAD_REACTORS
330
47
102
}
330
47
100
AcDbScale
 70
     0
300
1'-0" = 1'-0"
140
12.0
141
12.0
290
     0
  0
ENDSEC
  0
EOF
